Song name
# A B C D E F G H I J K L M N O P Q R S T U V W X Y Z

Bees - Voices Green And Purple tab

s=slide


verse on both guitars

e-------------------|
b-------------------|
g-------------------|
d-----5s7-------5s7-|   6x
a-5s7-----0-5s7-----|
e-------------------|

e-------------------|
b-------------------|
g-------------------|
d-----7s9-------7s9-|   8x
a-7s9-----7-7s9-----|
e-------------------|

chorus
guitar 1

e-----------------|
b-----------------|
g-4-5-6-7-8-7-6-5-|
d-5-6-7-8-9-8-7-6-|  7x
a-----------------|
e-----------------|

guitar 2

e------------------|
b------------------|
g-5s6s7s8s9s8s7s6s-
d-5s6s7s8s9s8s7s6s-  6x
a------------------|
e------------------|

then the rest is simple.

tabbed by ty wright
Tap to rate this tab
# A B C D E F G H I J K L M N O P Q R S T U V W X Y Z