Song name
# A B C D E F G H I J K L M N O P Q R S T U V W X Y Z

Bees - Chicken Payback tab

That riff..

E|---------------------------------|
B|---------------------------------|
G|------6-6-------7-7-----9~-------|
D|-6-6--x-x--7-7--x-x--9--x--------|
A|-x-x--4-4--x-x--5-5--x--7~-------|
E|-4-4-------5-5-------7-----0~----|

Verses:

e|-7-7--7-------------------------------------------|
B|-8-9--9-------------------------------------------|
G|-9-9--9-------------------------------------------|
D|----------------6-4-2-0--0--------------2~--------| x2
A|-----------0----------------4-2-0-0---------------|
E|---------7-----------------------4--2b-0----------|

e|-5-5--5-------------------------------------------|
B|-5-5--5-------------------------------------------|
G|-5-6--6---------6-4-2-0--0--------------2~--------|
D|-----------0----------------4-2-0-0---------------|
A|---------7-----------------------4--2b-0----------|
E|--------------------------------------------------|

e|-7-7--7-------------------------------------------|
B|-8-9--9-------------------------------------------|
G|-9-9--9-------------------------------------------|
D|----------------6-4-2-0--0--------------2~--------|
A|-----------0----------------4-2-0-0---------------|
E|---------7-----------------------4--2b-0----------|

Solo:

e|-7-7------------------------------------------|
B|-8-9------------------------------------------|
G|-9-9-7~-----7---------------------------------|
D|-----8h9~---9--8--8-7-5-7--5------------------|
A|-----------------------------7--7-5h7p5h7~~---|
E|----------------------------------------------|

e|-------------------------------------------------------------------------------------|
B|--------------------------------------------8----------------------------------------|
G|-----------------------------------------7-9-9-7-7-7/9\7-7---------------------------|
D|-8--8h9p8\5-8-8h9p8\5-8-8h9p8\5-8-8h9p8\5-------9---------9-8-8h9p8\5----------------|
A|-----------------------------------------------------------------------5h7p5h7p5h7~~-|
E|-------------------------------------------------------------------------------------|

e|---------------------------------9----12----------------------|
B|---------------------------12b12.5--12---9br-7br-5-7-5--5///--|
G|-----9----9----11br-9---9-------------------------------------|
D|-9-11-(11)---11------11---------------------------------------|
A|--------------------------------------------------------------|
E|--------------------------------------------------------------|

(note: if your guitar can't reach the 23rd fret then bend 22 slightly)
e|--12--12--9----23--22--19--17--15-17-12-15b16r15--12-12~----|
B|------------------------------------------------------------|
G|------------------------------------------------------------|
D|------------------------------------------------------------|
A|------------------------------------------------------------|
E|------------------------------------------------------------|

Key:
x = mute string
~ = let ring
b = bend
r = release
h = hammer on
p = pull off
\ = slide down
/ = slide up
(#) = ghost note (don't have to play it)

that's about it.. you can work out where everything goes ;)
Tap to rate this tab
 
# A B C D E F G H I J K L M N O P Q R S T U V W X Y Z