Guitaretab - guitar tabs
Song name
# A B C D E F G H I J K L M N O P Q R S T U V W X Y Z

Beethoven Ludwig - Ninth Symphony: An Ode To Joy tab

This is my simplified version of Beethoven's Ninth Symphony.
I came across some other versions across the net but they all 
looked -just like most classical tabs- horribly difficult :)
This sounds good and can be played by any beginning guitar 
player.

Have fun,
Yellow
(yellowonline@hotmail.com)

Beethoven - Ninth Symphony: an ode to Joy (aka. the peace song)
---------------------------------------------------------------
Standard tuning (EADGBA)


0-0-1-3-3-1-0---------0-0-----|0-0-1-3-3-1-0---------0-0-----
--------------3-1-1-3-----3-3-|--------------3-1-1-3-----3-1-
------------------------------|------------------------------
------------------------------|------------------------------
------------------------------|------------------------------
------------------------------|------------------------------

------------------------------|------3-3-------------0-0-----
3-5-1-3-5-6-5-1-3-5-6-5-3-1-3-|--3-5-----6-5-3-1-1-3-----3-1-
------------------------------|0-----------------------------
------------------------------|------------------------------
------------------------------|------------------------------
------------------------------|------------------------------




[ Tab from: http://www.guitaretab.com/b/beethoven-ludwig/23357.html ]
Related for Ninth Symphony: An Ode To Joy tab
Advertisement will be closed in 10 seconds