Guitaretab - guitar tabs
Song name
# A B C D E F G H I J K L M N O P Q R S T U V W X Y Z

Beethoven - Himno A La Alegr?a tab

Un saludo para la 49 pinche secu chafa para diana lalo valentin sepi para g?ero pal grupo6
Departe del espectrin alias el diego

|----------------------------------|----------------------------------|
|----------------------------------|----------------------------------|
|-------0-------0-------0-------0--|-------0-------0-------0-------0--|
|-----------2---------------2------|-----------3---------------3------|
|---3---------------3--------------|---3---------------3--------------|
|----------------------------------|----------------------------------|


|----------------------------------|----------------------------------|
|----------------------------------|----------------------------------|
|-------0-------0-------0-------0--|-------0-------0-------0-------0--|
|-----------2---------------2------|-----------3---------------3------|
|---3---------------3--------------|---3---------------3--------------|
|----------------------------------|----------------------------------|


|---0-------0-------1-------3------|---3-------1-------0--------------|
|----------------------------------|---------------------------3------|
|-------0-------0-------0-------0--|-------0-------0-------0-------0--|
|-----------2---------------2------|-----------0---------------0------|
|---3---------------3--------------|---2---------------2--------------|
|----------------------------------|----------------------------------|


|---------------------------0------|---0-------------------------------0--|
|---1-------1-------3--------------|---------------3---3------------------|
|-------0-------0-------0-------0--|-------0---------------0-------0------|
|-----------2---------------2------|-----------0---------------0----------|
|---0---------------0--------------|-----------------------------------3--|
|----------------------------------|---3---------------3------------------|


|-------0-------1-------3-------3--|-------1-------0------------------|
|----------------------------------|-----------------------3-------1--|
|---0-------0-------0-------0------|---0-------0-------0-------0------|
|-------2---------------2----------|-------0---------------0----------|
|---------------3---------------2--|---------------2---------------0--|
|----------------------------------|----------------------------------|


|-----------------------0----------|----------------------------------|
|-------1-------3---------------3--|-----------1---1---------------3--|
|---0-------0-------0-------0------|---0---------------0-------0------|
|-------2---------------2----------|-------0---------------2----------|
|---------------0------------------|---------------3---------------2--|
|-------------------------------3--|----------------------------------|


|---------------0------------------|-------0---1---0------------------|
|-------3---------------1-------3--|-----------------------1-------3--|
|---0-------0-------0-------0------|---0---------------0-------0------|
|-------0---------------2----------|-----------------------2----------|
|---------------3---------------2--|---------------3---------------2--|
|----------------------------------|----------------------------------|


|-------0---1---0------------------|-----------0-------0-------1------|
|-----------------------3-------1--|---3------------------------------|
|---0---------------1-------1---2--|---2---0-------0-------0-------0--|
|-------------------------------2--|---0---0-----------2--------------|
|-------------------------------0--|-----------3----------------------|
|---------------0------------------|---2---3-------------------3------|


|---3-------3-------1-------0------|----------------------------------|
|----------------------------------|---3-------1-------1-------3------|
|-------0-------0-------0-------0--|-------0-------0-------0-------0--|
|---2---------------0--------------|---0---------------2--------------|
|-----------2---------------2------|-----------0---------------0------|
|----------------------------------|----------------------------------|


|----0---------------------------------|
|--------------3--------------1----1---|
|---------0---------0--------------0---|
|----2-------------------0---------2---|
|----------------------------------3---|
|--------------3-----------------------|

[ Tab from: http://www.guitaretab.com/b/beethoven/25191.html ]