Before The Dawn - Undone tab

Hey BTD fans. Im kinda new to tabbing stuff so some stuff might be inaccurate.
But i tried my best and here it is. 

E|---------------------------------------------|
B|---------------------------------------------|
G|-8-8-8---------------------------------------|
D|------10-10-11-11-11-11-11-11-----8-8-8------|
A|-----------------------------11-11-----------|
D|---------------------------------------------|

E|---------------------------------------------|
B|---------------------------------------------|
G|---------------------------10-10-10-10-8-7-8-|
D|-11-11-11-11-11-10-10-10-10------------------|
A|---------------------------------------------|
D|---------------------------------------------|
 
                (x4)
Tap to rate this tab
 
# A B C D E F G H I J K L M N O P Q R S T U V W X Y Z