Before The Dawn - Disappear tab

Intro:

Main Riff:

E ------------------------------------------------------------|
B ------------------------------------------------------------|
G ------------------------------------------------------------|
D ------------------------------------------------------------|
A --0-0-0----0-0---0-0-0---0-0---8////-12////-10////-5--------|
E --0-0-0----0-0---0-0-0---0-0---8////-12////-10////-5--------| etc.
     pm...          pm...


Verse riff:

E --------------------------------------------------------------|
B --------------------------------------------------------------|
G --------------------------------------------------------------|
D ---------------------------------------------------------5-5--|
A --0-0-0-----0-----0-0-0-----0-----0-0-0----0----0-0-0----3-3--|
E --0-0-0-----0-----0-0-0-----0-----0-0-0----0----0-0-0---------| etc.
     pm...            pm...           pm...         pm...


Pre-chorus:

E --------------------------------------------|
B --------------------------------------------|
G --------------------------------------------|
D ----------------------------5///------------|
A --5////----8////----3////---3///------------|
E --5////----8////----3////-------------------|


"...Is burning like pyre"
E -----------------------------------|
B -----------------------------------|
G -----------------------------------|
D -----------------------------------|
A --5////----8////----7/////////////-|
E --5////----8////----7/////////////-|

Chorus:

"Today I feel, I wish to disappear..."

E -------------------------------------|
B -------------------------------------|
G -------------------------------------|
D -----------------------5/////--------|
A --0/////------3/////---3/////--------|
E --0/////------3////------------------|

Etc.
Tap to rate this tab
 
# A B C D E F G H I J K L M N O P Q R S T U V W X Y Z