Before The Dawn - Deadsong Acoustic tab

1)

E ------------0----------------------0-----|
B ---------3-----3-----------------3-----3-|
G -----2------------------------2----------|
D --0------------------------0-------------|
A -----------------------------------------|
E -----------------------------------------|

2)

E -----------0-----------------------0------|
B --------6-----6------------------6-----6--|
G -----3------------------------3-----------|
D --0------------------------0--------------|
A ------------------------------------------|
E ------------------------------------------|

3) reapeat 1-st

4)

E ------------3----------------------3------|
B ---------3-----3-----------------3------3-|
G -----3------------------------3-----------|
D --0------------------------0--------------|
A ------------------------------------------|
E ------------------------------------------|
Tap to rate this tab
 
# A B C D E F G H I J K L M N O P Q R S T U V W X Y Z