Song name
# A B C D E F G H I J K L M N O P Q R S T U V W X Y Z

Before The Dawn - Winter Within tab

From the album Deathstar Rising (2011)
* This is my first real attempt at tabbing a song. Sorry if this sucks but I just wanted
to put up a song. Tabbed by ear using Audacity so may be some mistakes. Comment if you
have any corrections or thoughts. Listen to the song for the strumming patterns. Lol, 
sorry, too lazy. *

Guitar 1: Tuomas Saukkonen - CGCFAD
Guitar 2: Juho Raiha       - CGCFAD
           Part 1 - Intro
Guitar 1 0:00, 0:52.
|-------------------------------------------------------------------|
|-------------------------------------------------------------------|
|-------------------------------------------------------------------|
|0---------------------------------8----------------10--------------|
|0---------------------------------8----------------10--------------|
|0---------------------------------8----------------10--------------|

Guitar 1 ending - Play above once then bottom riff. Overall- Play twice.
|--------------------------------------------------------------------|
|--------------------------------------------------------------------|
|--------------------------------------------------------------------|
|0--------------------------------3----------------7-----------------|
|0--------------------------------3----------------7-----------------|
|0--------------------------------3----------------7-----------------|


Guitar 2 0:00, 0:52.
|---------------------------------------------------------------------|
|---------------------------13-15-13---13-----------------------------|
|------14-12--12------12-14----------14---14-12-14-12---12------------|
|12~-12-----15---15-14--------------------------------15---15-14-12~--|
|---------------------------------------------------------------------|
|---------------------------------------------------------------------|
|---------------------------------------------------------------------|
Play above 3 times then play below. Overall, play together twice.
|----------------------------------------------------------------------|
|-----------13-15-13---13----------------------------------------------|
|-----14-12----------14---14-12-14-14-14-12-12-12----------------------|
|15~15-------------------------------------------15-15-15-14-14-14-12~-|
|----------------------------------------------------------------------|
|----------------------------------------------------------------------|

Part 2 - Verse

Guitar 1 + 2 0:26, 1:46
|-----------------------------------------------------------------------|
|-----------------------------------------------------------------------|
|-----------------------------------------------------------------------|
|0---------------------------0------------------------------------------|
|0-----8-8---7-7---7-7-------0-----8-8---7-7---7-7----------------------|
|0--000-0-000-0-000-0-101010-0--000-0-000-0-000-0-101010----------------|

|-----------------------------------------------------------------------|
|-----------------------------------------------------------------------|
|-----------------------------------------------------------------------|
|0----------------------------------------------------------------------|
|0-----8-8---7-7---5-5---8-8---7-7---10--10------8---8------------------|
|0--000-0-555-5-555-5-555-8-888-8-888--10--101010-10--101010------------|
 Guitar 1 plays this all twice. The second time, Guitar 2 goes..

Guitar 2 0:39, 1:59

|----------------------------------------------------------------------|
|----------------------------------------------------------------------|
|----------------------------------------------------------------------|
|0-------------------------------0-------------------------------------|
|0-----12-12---15-15---10-10-777-0-----12-12---15-15---10-10-777-------|
|0--000--0--000--0--000--0-------0--000--0--000--0--000--0--0----------|

|----------------------------------------------------------------------|
|----------------------------------------------------------------------|
|14-----------------------12----------14-------10------9----------10---|
|X------------------------X-----------X--------X-------X----------X----|
|12-----------------------10----------12-------8-------7----------8----|
|----------------------------------------------------------------------|

From there, play the intro riff's twice
                              Part 3 - Chorus
Guitar 1 1:19, 2:12
|----------------------------------------------------------------------|
|----------------------------------------------------------------------|
|----------------------------------------------------------------------|
|5------0---------10-----------5-----------8---------------12----------|
|5------0---------10-----------5-----------8---------------12----------|
|5------0---------10-----------5-----------8---------------12----------|

|----------------------------------------------------------------------|
|----------------------------------------------------------------------|
|----------------------------------------------------------------------|
|5-----0---------10------------5-----------8--------------10-----------|
|5-----0---------10------------5-----------8--------------10-----------|
|5-----0---------10------------5-----------8--------------10-----------|

Guitar 2 1:19, 2:12

|----------------------------------------------------------------------|
|---------------------------------13-----------15----------------------|
|12-----14-------10----9---12------x-----12----X----------14-----------|
|X------X--------X-----X----X-----10-----x-----12---------X------------|
|10-----12-------8-----7---10------------10---------------12-----------|
|----------------------------------------------------------------------|

|----------------------------------------------------------------------|
|--------------------------------13------------15----------------------|
|12----14-------10----9---12------X-----12-----X-----14----17------14--|
|X-----X--------X-----X---X------10-----X------12----X-----X-------X---|
|10----12-------8-----7---10------------10-----------12----15------12--|
|----------------------------------------------------------------------|

Play the verse riff twice, the the chrous riff.

Part 4 - Interlude (I think?) Riff

Guitar 1 2:39             2:52                  2:58

|---------------------------------------------------------------------|
|---------------------------------------------------------------------|
|---------------------------------------------------------------------|
|0~~----------------------0~~-------------------0~~-------------------|
|0~~----------------------0~~-------------------0~~-------------------|
|0~~----------------------0~~-------------------0~~-------------------|

Guitar 2 ( this is played under guitar one for awhile but it is pretty hard to here. )

2:39. Guitar 1 comes in at 3:05 Guitar 2 x 8  Guitar 1 X 6

|--------------------------------------------------------------------|
|--------------------------------------------------------------------|
|--------------------------------------------------------------------|
|0~-------------------------------------------0~---------------------|
|0~-------------------1-0-1-5-1-0-8-7-5-7-5-3-0~---------------------|
|0~-0-0-0-5-9-7-0-0-0-------------------------0~-0-0-0 7-5-7-0-0-0---|
                      . . . . . . . . . . . .

|--------------------------------------------------------------------|
|--------------------------------------------------------------------|
|--------------------------------------------------------------------|
|------3------------------5------------------------------------------|
|---3-------3-------3-----------3------------------------------------|
|3----3---3---3--2-----2-----2-----2---------------------------------|
 .    .   .   .  .     .     .     .
Then, play the chorus riff untill it fades out.

And there you have it. Can't say it is the best but Im pretty proud because it's my
first offical full song tab.
 Again, tell me where I have mistakes or what you think about it.
 I hope you enjoy playing this amazing song. Some tricky parts to tab but it was fun.
Tap to rate this tab
# A B C D E F G H I J K L M N O P Q R S T U V W X Y Z