Song name
# A B C D E F G H I J K L M N O P Q R S T U V W X Y Z

Before Their Eyes - Nighttime Is Our Time tab

Before Their Eyes
"The Nighttime Is Our Time"
Before Their Eyes (2007)

The second song off the cd. Also check my tab for City In 
A Snow Globe.

Things to know:
-h hammer on
-p pull off
-* pinch harmonic
-\ slide down
-/ slide up
-. palm mute
-~ let note ring

Tuning Drop d half step down: Db Ab Db Gb Bb eb

Both Guitars (x2)
eb:-----------------:
Bb:-----------------:
Gb:-----------------:
Db:-4444444-7777777-:
Ab:-4444444-9999999-:
Db:-4444444---------:

Both Guitars (x2)
eb:-----------------------:
Bb:-----------------------:
Gb:-----------------------:
Db:-000-000---00---7-00-6-:
Ab:-000-000-0-00-0-9-00-7-:
Db:-000-000-0-00-0---00---:
    ... ...   ..     ..

Both Guitars (x2)
eb:-----------------:
Bb:-----------------:
Gb:-----------------:
Db:-4444444-7777777-:
Ab:-4444444-9999999-:
Db:-4444444---------:

Both Guitars
eb:--------------------------------:
Bb:--------------------------------:
Gb:--------------------------------:
Db:-000-000---00----000-000---00---:
Ab:-000-000-0-00-0--000-000-0-00-0-:
Db:-000-000-0-00-0--000-000-0-00-0-: 
    ... ...   ..    ... ...   ..

Both Guitars            (x2)                     (x2)
eb:------------------------:------------------------:
Bb:------------------------:------------------------:
Gb:------------------------:------------------------:
Db:-44-4-44-4-4-4-444-222--:-00-0-00-0-0-0-444-222--:
Ab:-44-4-44-4-4-4----------:-00-0-00-0-0-0----------:
Db:-44-4-44-4-4-4----------:-00-0-00-0-0-0----------:
    ..   ..   .              ..   ..   .

Guitar 1
eb:------------------------------:
Bb:------------------------------:
Gb:------------------------------:
Db:-44444444-44444444-00000000-7-:
Ab:-44444444-44444444-00000000-7-:
Db:-44444444-44444444-00000000-7-:

Guitar 2 (x2)
eb:----------------------------------------------:
Bb:----------------------------------------------:
Gb:-14p13-0-14p13-0-16p14-0-14p13-0--16-14-13-14-:
Db:-------.-------.-------.-------.--------------:
Ab:----------------------------------------------:
Db:----------------------------------------------:

Guitar 2
eb:---------------------------------:
Bb:---------------------------------:
Gb:-14p13-0-14p13-0-13h14p13--------:
Db:-------.-------.----------15*\\\-:
Ab:---------------------------------:
Db:---------------------------------:

Both Guitars
eb:-------------------------------------------------------------:
Bb:-------------------------------------------------------------:
Gb:-------------------------------------------------------------:
Db:-0-00000-2-22222-4-44444-7-77777-0-00000-2-22222-44444-44444-:
Ab:-0-00000-2-22222-4-44444-7-77777-0-00000-2-22222-44444-44444-:
Db:-0-00000-2-22222-4-44444-7-77777-0-00000-2-22222-44444-44444-:

Guitar 1
eb:-------------------------------------------------------------:
Bb:-------------------------------------------------------------:
Gb:-------------------------------------------------------------:
Db:-0-00000-2-22222-4-44444-7-77777-0-00000-2-22222-44444-44444-:
Ab:-0-00000-2-22222-4-44444-7-77777-0-00000-2-22222-44444-44444-:
Db:-0-00000-2-22222-4-44444-7-77777-0-00000-2-22222-44444-44444-:

Guitar 2 (play this whole part 2 times)                    (x5) 
eb:-------------------------------------------------:---------:
Bb:-------------------------------------------------:------17-:
Gb:-14-13-14-16-14-13-14-13-14-16-14-13-14-13-14-13-:-13-14---:
Db:-------------------------------------------------:---------:
Ab:-------------------------------------------------:---------:
Db:-------------------------------------------------:---------:

Guitar 2
eb:--------------------------:
Bb:--------------------------:
Gb:-19~-18~-14~--14h16p14\\\-:
Db:--------------------------:
Ab:--------------------------:
Db:--------------------------:

Both Guitars
eb:---------------------------------:
Bb:---------------------------------:
Gb:---------------------------------:
Db:-0000000-2222222-4444444-7777777-:
Ab:-0000000-2222222-4444444-7777777-:
Db:-0000000-2222222-4444444-7777777-:
    ....... ....... ....... .......

Both Guitars
eb:---------------------------------:
Bb:---------------------------------:
Gb:---------------------------------:
Db:-0-0-0-0-2-2-2-2-4-4-4-4-7777777-:
Ab:-0-0-0-0-2-2-2-2-4-4-4-4-7777777-:
Db:-0-0-0-0-2-2-2-2-4-4-4-4-7777777-:

Guitar 1
eb:------------------------------:
Bb:------------------------------:
Gb:------------------------------:
Db:-44444444-44444444-00000000-7-:
Ab:-44444444-44444444-00000000-7-:
Db:-44444444-44444444-00000000-7-:

Guitar 2 (x2)
eb:---------------------------------------------:
Bb:---------------------------------------------:
Gb:-14p13-0-14p13-0-16p14-0-14p13-0-16-14-13-14-:
Db:-------.-------.-------.-------.-------------:
Ab:---------------------------------------------:
Db:---------------------------------------------:

Guitar 2
eb:---------------------------------:
Bb:---------------------------------:
Gb:-14p13-0-14p13-0-13h14p13--------:
Db:-------.-------.----------15*\\\-:
Ab:---------------------------------:
Db:---------------------------------:

Both Guitars
eb:-------------------------------------------------------------:
Bb:-------------------------------------------------------------:
Gb:-------------------------------------------------------------:
Db:-0-00000-2-22222-4-44444-7-77777-0-00000-2-22222-44444-44444-:
Ab:-0-00000-2-22222-4-44444-7-77777-0-00000-2-22222-44444-44444-:
Db:-0-00000-2-22222-4-44444-7-77777-0-00000-2-22222-44444-44444-:

Guitar 1
eb:-------------------------------------------------------------------:
Bb:-------------------------------------------------------------------:
Gb:-------------------------------------------------------------------:
Db:-0-00000-2-22222-4-44444-7-77777-0-00000-2-22222-44444-44444-xx-0~-:
Ab:-0-00000-2-22222-4-44444-7-77777-0-00000-2-22222-44444-44444-xx-0~-:
Db:-0-00000-2-22222-4-44444-7-77777-0-00000-2-22222-44444-44444-xx-0~-:

Guitar 2 (play this whole part 2 times)                  (x5)
eb:-------------------------------------------------:----------:
Bb:-------------------------------------------------:-------17-:
Gb:-14-13-14-16-14-13-14-13-14-16-14-13-14-13-14-13-:-13-14----:
Db:-------------------------------------------------:----------:
Ab:-------------------------------------------------:----------:
Db:-------------------------------------------------:----------:

Guitar 1 (Clean x4)
eb:-------------:
Bb:-------------:
Gb:-------------:
Db:-0~-2~-4~-7~-:
Ab:-0~-2~-4~-7~-:
Db:-0~-2~-4~-7~-:

Guitar 2 (Bare with me this is hardest and fastest part of the song)
eb:---------------------------------------------------------------:
Bb:---------------------------------------------------------------:
Gb:-19~-18~-18h19h21p19p18-19p18\16h18p16\14h16-14h16/18/19/21p19-:
Db:---------------------------------------------------------------:
Ab:---------------------------------------------------------------:
Db:---------------------------------------------------------------:

Guitar 2 (x4) (Im pretty sure this is right order, it sounds right)
eb:-------------------------------------------------:
Bb:-------------------------------------------------:
Gb:-21p19p18h19-18\16h18p16\14h16-14h16/18/19/21p19-:
Db:-------------------------------------------------:
Ab:-------------------------------------------------:
Db:-------------------------------------------------:

Guitar 2  (x5) Then
eb:----------:----------:
Bb:----------:----------:
Gb:-13-14-16-:-16~-14~b-:
Db:----------:----------:
Ab:----------:----------:
Db:----------:----------:

Both Guitars (x2)   
eb:-----------------:----:
Bb:-----------------:----:
Gb:-----------------:----:
Db:-000-222-444-777-:-0~-:
Ab:-000-222-444-777-:-0~-:
Db:-000-222-444-777-:-0~-:

Both Guitars
eb:-------------------------------------------------------------:
Bb:-------------------------------------------------------------:
Gb:-------------------------------------------------------------:
Db:-0-00000-2-22222-4-44444-7-77777-0-00000-2-22222-44444-44444-:
Ab:-0-00000-2-22222-4-44444-7-77777-0-00000-2-22222-44444-44444-:
Db:-0-00000-2-22222-4-44444-7-77777-0-00000-2-22222-44444-44444-:

Both Guitars (x2)
eb:---------------------------:
Bb:---------------------------:
Gb:---------------------------:
Db:-0-000-0-0-2~-4-444-4-4-7~-:
Ab:-0-000-0-0-2~-4-444-4-4-7~-:
Db:-0-000-0-0-2~-4-444-4-4-7~-:
    . ... .      . ... .

Guitar 1
eb:---------------------------:
Bb:---------------------------:
Gb:---------------------------:
Db:-0-000-0-0-2~-4-444-4-4-7~-:
Ab:-0-000-0-0-2~-4-444-4-4-7~-:
Db:-0-000-0-0-2~-4-444-4-4-7~-:
    . ... .      . ... . 

Guitar 2 (x2) (my favorite part)
eb:-----------------------------------------------------------:
Bb:-----------------------------------------------------------:
Gb:------------99-----------------------------99------1313-99-:
Db:-6-666-7-77----66-77-1616-1414--6-666-7-77---66-77---------:
Ab:-.-...---..---------------------.-...---..-----------------:
Db:-----------------------------------------------------------:

Both Guitars
eb:-----------:
Bb:-----------:
Gb:-----------:
Db:-0-000-0-0-:
Ab:-0-000-0-0-:
Db:-0-000-0-0-:
    . ... .
Tap to rate this tab
# A B C D E F G H I J K L M N O P Q R S T U V W X Y Z