Song name
# A B C D E F G H I J K L M N O P Q R S T U V W X Y Z

Before Their Eyes - The Journey Down South tab

hello, i'm tabing this song cause' the first tab it's not 100% alright, and
this one isn't too, but it's close. And by the way to all those who are
tabing songs of this band, please, try to hear well the tunning, this is
the real one, play the lower strings p.m. while listening the song and you will
notice.

Drop C# Tunning

Intro

Gtr.1

D#|--------------------------------|   Those slides do it with
A#|--------------------------------|   the pick over the strings
F#|--------------------------------|   starting from those frets
C#|--0-3p0-3p0-0-0-3p0-[12]\-------|   i don't know how it's call in
G#|--0-3p0-3p0-0-0-3p0-[12]\-------|   english
C#|--------------------------------|


Gtr.1 & Gtr.2

D#|------------------------------------------------|
A#|------------------------------------------------|
F#|------------------------------------------------|
C#|--0-3p0-3p0-0-0-3p0-3p0-------------------------|
G#|--0-3p0-3p0-0-0-3p0-3p0-----333-000-101010-555--|
C#|----------------------------333-000-101010-555--|
                                       [Tens]

Gtr.1

D#|------------------------------------------------|
A#|------------------------------------------------|
F#|------------------------------------------------|
C#|--0-3p0-3p0-0-0-3p0-3p0-------------------------|
G#|--0-3p0-3p0-0-0-3p0-3p0-----333-000-101010-555--|
C#|----------------------------333-000-101010-555--|


Gtr.2

D#|------------------------------------------------|
A#|------------------------------------------------|
F#|-------3h5-5*-3h5p3-3---3-----------------------|   I m not 100%
C#|------3h5----------5-5-3-5-7-5-3----------------|   sure of this part
G#|-----3h5------------------------5-3v------------|
C#|------------------------------------------------|

Gtr.1

D#|------------------------------------------------|
A#|------------------------------------------------|
F#|------------------------------------------------|
C#|--0-3p0-3p0-0-0-3p0-3p0-------------------------|
G#|--0-3p0-3p0-0-0-3p0-3p0-----333-000-101010-555--|
C#|----------------------------333-000-101010-555--|
                                       [Tens]
Gtr.2

D#|--------------------------------------------------------|
A#|--------------------------------------------------------|   figure out
F#|-12121212121212121212\1010101010101010/17171717171717---|   the strumming
C#|-x-x-x-x-x-x-x-x-x-x--x-x-x-x-x-x-x-x--x-x-x-x-x-x-x----|
G#|-10101010101010101010\8-8-8-8-8-8-8-8-/15151515151515---|
C#|--------------------------------------------------------|

Gtr.1

D#|------------------------------------------------|
A#|------------------------------------------------|
F#|------------------------------------------------|
C#|--0-3p0-3p0-0-0-3p0-3p0-------------------------|
G#|--0-3p0-3p0-0-0-3p0-3p0-----333-000-101010-555--|
C#|----------------------------333-000-101010-555--|
                                       [Tens]

Gtr.2

D#|--------------------------------------------------------|
A#|--------------------------------------------------------|   figure out
F#|-12121212121212121212\1010101010101010\5555555555-------|   the strumming
C#|-x-x-x-x-x-x-x-x-x-x--x-x-x-x-x-x-x-x--xxxxxxxxxx-------|
G#|-10101010101010101010\8-8-8-8-8-8-8-8-\3333333333-------|
C#|--------------------------------------------------------|


Gtr.1 & Gtr.2

D#|----------------|
A#|----------------|
F#|----------------|
C#|---3-5-6-8/12\--|
G#|---3-5-6-8/12\--|
C#|---3-5-6-8/12\--|

Verse

Gtr.1 & Gtr.2

D#|---------------------------------------|
A#|-----------------------------------5h--|
F#|-----------------------------------5h--|   x2
C#|---------------------------------------|
G#|-0000000-00000000-00000000-0000000-----|
C#|-0000000-00000000-00000000-0000000-----|
    ....... ........ ........ .......

Gtr.1 & Gtr.2

D#|--------------------------------------------------|
A#|--------------------------------------------------|
F#|--------------------------------------------------|
C#|--------------------------------------------------|
G#|-00000-0000-0000-00-00-0000-0000-00000-00000------|
C#|-00000-0000-0000-00-00-0000-0000-00000-00000------|
    ....   ..  ...        ...   ..  ....  ...

Chorus

Gtr.1 & Gtr.2

D#|------------------------------------------------|
A#|------------------------------------------------|
F#|------------------------------------------------|
C#|--0-3p0-3p0-0-0-3p0-3h5-------------------------|
G#|--0-3p0-3p0-0-0-3p0-3h5-----333-000-101010-555--|
C#|----------------------------333-000-101010-555--|

Gtr.1 & Gtr.2

D#|---------------------------------------------|
A#|---------------------------------------------|
F#|---------------------------------------------|
C#|-------3*---------3*-------3*----------------|
G#|-000-0----000-000----000-0-----000-000-3p0---|       repeat chorus
C#|-000-0----000-000----000-0-----000-000-3p0---|
    ... .    ... ...    ... .     ... ...


Gtr.1 & Gtr.2

D#|----------------------|
A#|----------------------|
F#|----------------------|
C#|---3-0h6-5--3-3p0-----|
G#|---3-0h6-5--3-3p0-----|
C#|---3-0h6-5--3-3p0-----|

Verse 2

Bass Only and then

Gtr.1 & Gtr.2

D#|-------------|
A#|-------------|
F#|-------------|
C#|----[12]\----|
G#|----[12]\----|
C#|-------------|

Gtr.1

D#|---------------------------------------------------------------------------------|
A#|---------------------------------------------------------------------------------|
F#|---------------------------------------------------------------------------------|
C#|-0h3p0-5p0-3p0-2p0-0h3p0-5p0-3p0-2p0-3p0-5p0-7p0-5p0-7p0-8p0-10p0-8-10-12-10-12--|
G#|---------------------------------------------------------------------------------|
C#|---------------------------------------------------------------------------------|

(Continues)
Gtr.1

D#|-------------------------------|
A#|-------------------------------|
F#|-------------------------------|   (im not 100% sure of this)
C#|-14-12-14-15-14-15-17-15-------|
G#|-------------------------------|
C#|-------------------------------|

Gtr.2

D#|-----------------------------------------------------|
A#|-----------------------------------------------------|
F#|-----------------------------------------------------|
C#|-----------------------------------------------------|   try to figure out
G#|-00--00--00--00--00--00--00--00--00--00--00--00------|   the time
C#|-00--00--00--00--00--00--00--00--00--00--00--00------|
    ..  ..  ..  ..  ..  ..  ..  ..  ..  ..  ..  ..

Gtr.1

D#|-----------------------------------------------------------------------------------|
A#|-----------------------------------------------------------------------------------|
F#|9-10h12-9-10h12-9-10h12-9-10h12-9-10h12-9-10h12-9-10h12-14-17-15-14-12h14-10h12p10-|
C#|-----------------------------------------------------------------------------------|
G#|-----------------------------------------------------------------------------------|
C#|-----------------------------------------------------------------------------------|


Gtr.2

D#|---------------------------------------------------|
A#|---------------------------------------------------|
F#|---------------------------------------------------|
C#|---------------------------------------------------|
G#|----------------------------------------00---------|
C#|----------------------------------------00---------|
                                           ..

Chorus

Gtr.1 & Gtr.2

D#|------------------------------------------------|
A#|------------------------------------------------|
F#|------------------------------------------------|
C#|--0-3p0-3p0-0-0-3p0-3h5-------------------------|
G#|--0-3p0-3p0-0-0-3p0-3h5-----333-000-101010-555--|
C#|----------------------------333-000-101010-555--|

Gtr.1 & Gtr.2

D#|---------------------------------------------|
A#|---------------------------------------------|
F#|---------------------------------------------|
C#|-------3*---------3*-------3*----------------|
G#|-000-0----000-000----000-0-----000-000-3p0---|       repeat chorus
C#|-000-0----000-000----000-0-----000-000-3p0---|
    ... .    ... ...    ... .     ... ...


Interlude

Gtr.1 & Gtr.2

D#|-------------------------------|
A#|-------------------------------|
F#|-------------------------------|
C#|-0--0--00-000--000-0-00--000---|
G#|-0--0--00-000--000-0-00--000---|
C#|-0--0--00-000--000-0-00--000---|


Gtr.1 & Gtr.2

D#|----------------------------------|
A#|----------------------------------|
F#|----------------------------------|
C#|---3-0-6--5-3h5--3-0-6-5-3-5-xx---|
G#|---3-0-6--5-3h5--3-0-6-5-3-5-xx---|
C#|---3-0-6--5-3h5--3-0-6-5-3-5-xx---|  x2

Gtr.1

D#|----------------------------------|
A#|----------------------------------|
F#|----------------------------------|
C#|---3-0-6--5-3h5--3-0-6-5-3-5------|
G#|---3-0-6--5-3h5--3-0-6-5-3-5------|
C#|---3-0-6--5-3h5--3-0-6-5-3-5------|

Gtr.2

D#|----------------------------------------------------------------------|
A#|----------------------------------------------------------------------| Remember
F#|--7777777777/1010-7777777777/1010-7777777777/1010101010101010---------| that pick
C#|--xxxxxxxxxx-x-x--xxxxxxxxxx-x-x--xxxxxxxxxx-x-x-x-x-x-x-x-x-[12]\----| thing
G#|--5555555555/8-8--5555555555/8-8--5555555555/8-8-8-8-8-8-8-8-[12]\----|
C#|----------------------------------------------------------------------|

Last Chorus

Gtr.1 & Gtr.2

D#|------------------------------------------------|
A#|------------------------------------------------|
F#|------------------------------------------------|
C#|--0-3p0-3p0-0-0-3p0-3h5-------------------------|
G#|--0-3p0-3p0-0-0-3p0-3h5-----333-000-101010-555--|   Repeat
C#|----------------------------333-000-101010-555--|

Here starts the outro

Gtr.1 & Gtr.2

D#|-----------------|
A#|-----------------|
F#|-----------------|
C#|---3-5-6--8/12\--|
G#|---3-5-6--8/12\--|
C#|---3-5-6--8/12\--|

Gtr.1

D#|------------------------------------------------------------------|
A#|------------------------------------------------------------------|
F#|------------------------------------------------------------------|
C#|------------------3-------------------------------------------3---|
G#|-------3--3--------5--------3--3----0-3h5-3--------3--3--------5--|
C#|-0-3h5--5---5-0-5-----0-3h5--5--5-3-0-3h5-3--0-3h5--5---5-0-5-----|
                 .                   .                       .
Continues

Gtr.1

D#|------------------------|
A#|------------------------|
F#|------------------------|
C#|--6-5--5----------------|
G#|-5---8--8-5-8-5-3-5p3-0-|
C#|------------------------|


Gtr.2

D#|-------------------------|
A#|-------------------------|
F#|-------------------------|
C#|----------0-0-3-0-0-3-5--|
G#|----------0-0-3-0-0-3-5--|
C#|----------0-0-3-0-0-3-5--|

Gtr.1

D#|-----------------------------------------------------|
A#|-----------------------------------------------------|
F#|-----------------------------------------------------|   Repeat x4
C#|-0-000000-3-0-000000-0-000000------------------------|
G#|-0-000000-3-0-000000-0-000000----3----3-0------------|
C#|-0-000000-3-0-000000-0-000000-3-5-5p0-3-0------------|
      ......     ......   ......

Gtr.2

D#|--------------------------------------------------|
A#|--------------------------------------------------|
F#|--------------------------------------------------|   Repeat x4
C#|-0-000000-3-0-000000-0-000000---------------------|
G#|-0-000000-3-0-000000-0-000000----3---3*-----------|
C#|-0-000000-3-0-000000-0-000000-3-5-5p0-------------|
      ......     ......   ......


Ends on

Gtr.1 & Gtr.2

D#|------|
A#|------|
F#|------|
C#|--0---|   let ir riiiinngg
G#|--0---|
C#|--0---|

Well that's all, pretty simple ;) im not 100% sure in some part but i thing it 95% 
this tab so, enjoy.
bye :) !
Tap to rate this tab
# A B C D E F G H I J K L M N O P Q R S T U V W X Y Z