Song name
# A B C D E F G H I J K L M N O P Q R S T U V W X Y Z

Before Their Eyes - Why 6 Is Afraid Of 7 tab

Before Their Eyes
"Why 6 Is Afraid Of 7"
Before Their Eyes (2007)

...Because 7 ate 9. I dont have all of guitar 2's parts because its kinda hard to make 
but i have most of it.

Thing to know:
-. palm mute
-/ slide up
-\ slide down
-* pinch harmonic
-h hammer on
-p pull off
-~ let note ring

Tuning Drop D half step Db Ab Db Gb Bb eb

Guitar 1 (starts first)                                     (x2)
eb:---------------:---------------------------------------------:
Bb:---------------:---------------------------------------------:
Gb:---------------:---------------------------------------------:
Db:---------------:---------------------------------------------:
Ab:-8888888888888-:-88888888888---------------(tens)------------:
Db:-.............-:-...........-888888888888-101010101010101010-:
                                ............  . . . . . . . . .

Guitar 2                                                        (x2)
eb:-------:---------------------------------------------------------:
Bb:-------:---------------------------------------------------------:
Gb:-------:---------------------------------------------------------:
Db:-------:---------------------------------------------------------:
Ab:-------:------------(tens)---------(twelves)------(fifteens)-----:
Db:-15\\\-:-8888888888-10101010101010-12121212121212-15151515151515-:
            ..........  . . . . . . .  . . . . . . .  . . . . . . .

(this part both plays once then guitar 1 x2)
eb:---------------------------------------:
Bb:---------------------------------------:
Gb:---101010101010---101010101010-10\5-55-:
Db:-0--x-x-x-x-x-x-0--x-x-x-x-x-x--x\x-xx-:
Ab:-0--8-8-8-8-8-8-0--8-8-8-8-8-8--8\3-33-:
Db:-0--------------0----------------------:

Guitar 2 (plays this once. im not sure what is played next)
eb:-------------------------------------:
Bb:---101010101010---101010101010-10\66-:
Gb:----x-x-x-x-x-x----x-x-x-x-x-x--x\xx-:
Db:-0--7-7-7-7-7-7-0--7-7-7-7-7-7--7\33-:
Ab:-0--------------0--------------------:
Db:-0--------------0--------------------:

Guitar 1
eb:-------------------------------------------------:
Bb:-------------------------------------------------:
Gb:---101010101010----------------------------------:
Db:-0--x-x-x-x-x-x--10-8-7--------------------------:
Ab:-0--8-8-8-8-8-8--------10-8-7--------------------:
Db:-0---------------------------10-8-7-5-7-5-3-5-3*-:

Guitar 1 (im not sure what guitar 2 is playing for this part)
eb:------------------------------:
Bb:------------------------------:
Gb:-(listen for how many times note is picked)
Db:------------------------------:
Ab:-5-7-8------8-10-7-8----------:
Db:-.-.-.-8-10-.--.-.-.-12-10-10-:
          .  .           .  .

Guitar 1 (x2)
eb:---------------------------------:
Bb:---------------------------------:
Gb:---------------------------------:
Db:-5555555-8888888-0000000-3333333-:
Ab:-5555555-8888888-0000000-3333333-:
Db:-5555555-8888888-0000000-3333333-:

Guitar 2 (x2)
eb:---------------------------------------------------------:
Bb:-----------------------------(x4)------------------------:
Gb:-5-5/77-7/99-9/10-101010--14p9h10p9--101010/121212\99999-:
Db:-x-x/xx-x/xx-x/-x--x-x-x--------------x-x-x/-x-x-x\xxxxx-:
Ab:-3-3/55-5/77-7/-8--8-8-8--------------8-8-8/101010\77777-:
Db:---------------------------------------------------------:

Guitar 1
eb:------------------------------:
Bb:------------------------------:
Gb:------------------------------:
Db:------------------------------:
Ab:-5-7-8------8-10-7-8----------:
Db:-.-.-.-8-10-.--.-.-.-12-10-10-:
          .  .           .  .

Guitar 1 (x2)
eb:---------------------------------:
Bb:---------------------------------:
Gb:---------------------------------:
Db:-5555555-8888888-0000000-3333333-:
Ab:-5555555-8888888-0000000-3333333-:
Db:-5555555-8888888-0000000-3333333-:

Guitar 2 (x2)
eb:---------------------------------------------------------:
Bb:-----------------------------(x4)------------------------:
Gb:-5-5/77-7/99-9/10-101010--14p9h10p9--101010/121212\99999-:
Db:-x-x/xx-x/xx-x/-x--x-x-x--------------x-x-x/-x-x-x\xxxxx-:
Ab:-3-3/55-5/77-7/-8--8-8-8--------------8-8-8/101010\77777-:
Db:---------------------------------------------------------:

Guitar 1 (x4)
eb:-----------------------------------:
Bb:-----------------------------------:
Gb:---1010101010---1010101010-10\5-55-:
Db:-0--x-x-x-x-x-0--x-x-x-x-x--x\x-xx-:
Ab:-0--8-8-8-8-8-0--8-8-8-8-8--8\3-33-:
Db:-0------------0--------------------:


Guitar 2 (plays on 2nd & 4th time)
eb:-----------------------------------:
Bb:---1010101010---1010101010-10\6-66-:
Gb:----x-x-x-x-x----x-x-x-x-x--x\x-xx-:
Db:-0--7-7-7-7-7-0--7-7-7-7-7--7\3-33-:
Ab:-0------------0--------------------:
Db:-0------------0--------------------:

Both Guitars
eb:---------------------------:
Bb:---------------------------:
Gb:---------------------------:
Db:-0---0---0---0---0---------:
Ab:-0-0-0-0-0-0-0-0-0-0-00000-:
Db:-0-0-0-0-0-0-0-0-0-0-00000-:
      .   .   .   .   . .....

Both Guitars
eb:-------------------------------------------:
Bb:-----------------12------------------------:
Gb:-----------------15------------------------:
Db:-8//12-0-8//12-0----0-8//12-0-8\\\-0-------:
Ab:-8//12-0-8//12-0----0-8//12-0-8\\\-0-00000-:
Db:-8//12-0-8//12-0----0-8//12-0-8\\\-0-00000-:
                                        .....

Guitar 1    Guitar 2
eb:-------:-----------:
Bb:-------:----(x8)---:
Gb:-------:-14p9h10p9-:
Db:-0~-5~-:-----------:
Ab:-0~-5~-:-----------:
Db:-0~-5~-:-----------:

Guitar 1 (x2)
eb:---------------------------------:
Bb:---------------------------------:
Gb:---------------------------------:
Db:-5555555-8888888-0000000-3333333-:
Ab:-5555555-8888888-0000000-3333333-:
Db:-5555555-8888888-0000000-3333333-:

Guitar 2 (x2)
eb:---------------------------------------------------------:
Bb:-----------------------------(x4)------------------------:
Gb:-5-5/77-7/99-9/10-101010--14p9h10p9--101010/121212\99999-:
Db:-x-x/xx-x/xx-x/-x--x-x-x--------------x-x-x/-x-x-x\xxxxx-:
Ab:-3-3/55-5/77-7/-8--8-8-8--------------8-8-8/101010\77777-:
Db:---------------------------------------------------------:

Both Guitars
eb:-----------------------------------------:
Bb:-----------------------------------------:
Gb:---------1010101010---1010101010-10\5-55-:
Db:-12\\\-0--x-x-x-x-x-0--x-x-x-x-x--x\x-xx-:
Ab:-12\\\-0--8-8-8-8-8-0--8-8-8-8-8--8\3-33-:
Db:-12\\\-0------------0--------------------:

Guitar 1            Guitar 2
eb:----------------:----------------:
Bb:----------------:---101010101010-:
Gb:---101010101010-:----x-x-x-x-x-x-:
Db:-0--x-x-x-x-x-x-:-0--7-7-7-7-7-7-:
Ab:-0--8-8-8-8-8-8-:-0--------------:
Db:-0--------------:-0--------------:

Guitar 1
eb:-------------------------------------:
Bb:-------------------------------------:
Gb:-------------------------------------:
Db:-10-8-7-------------------------0-00-:
Ab:-------10-8-7-------------------0-00-:
Db:-------------10-8-7-5-7-5-3-5-3-0-00-:

Guitar 2 
eb:--------------------------:
Bb:--------------------------:
Gb:--------------------------:
Db:-555555-777777-3-5-3-0-00-:
Ab:-555555-777777-3-5-3-0-00-:
Db:-555555-777777-3-5-3-0-00-:

you can email me at: irbyl@cg61.navy.mil for any questions/concerns/comments.
Tap to rate this tab
 
# A B C D E F G H I J K L M N O P Q R S T U V W X Y Z