Song name
# A B C D E F G H I J K L M N O P Q R S T U V W X Y Z

Before Their Eyes - Shotguns Speak Louder Than Words tab

Shotguns Speak Louder than Words
Before their Eyes
Db Ab Db Gb Bb eb (drop d + half step)
nataku/jj murphy



|-------------------------------------|
|-------------------------------------|
|-5/10-10-10-10-10-10-10-10-10-9-9-10-|
|-3/x--x--x--x--x--x--x--x--x--7-7-x--|
|-3/8--8--8--8--8--8--8--8--8--7-7-8--| repeat
|-3p0--0--0--0--0--0--0--0--0--7-7-0--|

verse
|--------------------|
|--------------------|
|-10~-10----7-10-7---|
|-10~---8-10----8-10-|
|-8------------------|
|-8------------------| *hard to hear background shit, 
                         so improvised with this


verse rhythm
|-------------|
|-------------|
|-10--------5-|
|-10--------3-|
|-8---------3-|
|-8---------3-| repeats

chorus (chords provided, figure timing and strumming)
|---------|
|---------|
|---------|
|-7-8-3-5-|
|-7-8-3-5-|
|-7-8-3-5-|

verse 2
|-------------------|
|-------------------|
|-------------------|
|-88-8-1010-10-77-7-|
|-88-8-1010-10-77-7-|
|-88-8-1010-10-77-7-|
  ..   . .     ..       palm mute

[interlude]
	im working on this...
	im either going to make it into chords or single note
	however, the first note starts with [x-8-10-10-x-x-]

baller breakdown

|---------------------------------------|
|-----------------------------------[5]-|
|-----------------------------------[8]-| [] = pinch harmonics
|-00-0000-0000-0000-7b--00-       0-----|
|-00-0000-0000-0000-7b--00-       0-----|
|-00-0000-0000-0000-7b--00-repeat 0-----|
  .. .... .... ....     .. 
|--------------------------|
|--------------------------|
|--------------------------|
|-8-8-8-8-8-8-8-10-10-10/3-|
|-8-8-8-8-8-8-8-10-10-10/3-|
|-8-8-8-8-8-8-8-10-10-10/3-|

back to chorus!

. = palm mute
/ = slide
b = bend
~ = let ring
Tap to rate this tab
# A B C D E F G H I J K L M N O P Q R S T U V W X Y Z