Song name
# A B C D E F G H I J K L M N O P Q R S T U V W X Y Z

Before Their Eyes - Close Your Eyes Its Okay To Rest Now tab

Before Their Eyes
"Close Your Eyes Its Okay To Rest Now"
Before Their Eyes (2007)

Last song of their great cd. Someone attempted to tab this song but parts
were wrong and it was missing a bunch. So heres my version. i also tabbed
City In a Snow Globe and The Nighttime Is our Time.

Things to know:
-h hammer on
-p pull off
-\ slide down
-/ slide up
-. palm mute
-~ let note ring

Tuning Drop D half step Db Ab Db Gb Bb eb

(play this twice)
eb:-------------------------------------------------------:
Bb:-------------------------------------------------------:
Gb:-------------------------------------------------------:
Db:--------------------------------------0----------------:
Ab:---7-7-7h8p7---7-7-7h8p7---7-7-7h8p7---101010-10-10h12-:
Db:-0-.---------8-.--------10-.------------.-.-.----------:

eb:--------------------------------------------:
Bb:--------------------------------------------:
Gb:---------------------------------------6666-:
Db:---------------------------------------5555-:
Ab:---7-7-7h8p7---7-7-7h8p7---7-7-7h8p7---4444-:
Db:-0-.---------8-.--------10-.---------0------:
                                        . 

eb:--------------------------:
Bb:--------------------------:
Gb:--------------------------:
Db:-0~----0~----0~----0~-----:
Ab:-0~-00-0~-87-0~-00-0~-8p7-:
Db:-0~-00-0~-87-0~-00-0~-8p7-:
       ..    ..    ..      

eb:---------------------------------------------:
Bb:---------------------------------------------:
Gb:---------------------------------------------:
Db:-0~--------0~---------0~---------------------:
Ab:-0~-00-8p7-0~-00-10p8-0~-00-8p7-10-8-7h8p7p0-:
Db:-0~-00-8p7-0~-00-10p8-0~-00-8p7-10-8-7h8p7p0-:
       ..        ..         ..

eb:---------------------------------------------:
Bb:---------------------------------------------:
Gb:---------------------------------------------:
Db:-0~--------0~---------0~---------------------:
Ab:-0~-00-8p7-0~-00-10p8-0~-00-8p7-10-8-7-10\\\-:
Db:-0~-00-8p7-0~-00-10p8-0~-00-8p7-10-8-7-10\\\-:
       ..        ..         ..

eb:-------------------------------------------:
Bb:-------------------------------------------:
Gb:-------------------------------------------:
Db:-0-----0----------0-----0------------------:
Ab:-0-000-0-000------0-000-0------------------:
Db:-0-000-0-000-8h10-0-000-0-10p0-8p0-7h8p7p0-:
      ...   ...        ...

eb:------------------------------------------:
Bb:------------------------------------------:
Gb:------------------------------------------:
Db:-0-----0----------0-----0----------121212-:
Ab:-0-000-0-000------0-000-0----------121212-:
Db:-0-000-0-000-8h10-0-000-0-10p0-8p0-121212-:
      ...   ...        ...

eb:---------------------------------------------------------------------:
Bb:---------------------------------------------------------------------:
Gb:---------------------------------------------------------------------:
Db:-0-000000-7-88888h10p8-77777h8p7-0-0000000-7-88888h10p8-77777--------:
Ab:-0-000000-7-88888h10p8-77777h8p7-0-0000000-7-88888h10p8-77777--------:
Db:-0-000000-7-88888h10p8-77777h8p7-0-0000000-7-88888h10p8-77777-10b\\\-:

(play twice)
eb:------------------------------------------------------:
Bb:------------------------------------------------------:
Gb:------------------------------------------------------:
Db:-0----3p2p0-0----3p2p0-3p2~----0----5p0-3p0-2h3p2-----:
Ab:-0-00-------0-00------------00-0-00---------------3/5-:
Db:-0-00-------0-00------------00-0-00-------------------:
      ..         ..            ..   ..

      
eb:--------------------------------------------------:
Bb:-------555555----555555----555555----555555-------:
Gb:-------888888----888888----888888----888888-------:
Db:-0~-----------------------------------------12\\\-:
Ab:-0~-00--------00--------00--------00--------12\\\-:
Db:-0~-00--------00--------00--------00--------12\\\-:
       ..        ..        ..        ..

eb:------------------------------------------:
Bb:----555555-----555555----555555----555555-:
Gb:----888888-----888888----888888----888888-:
Db:------------------------------------------:
Ab:-00--------00---------00--------00--------:
Db:-00--------00---------00--------00--------:
    ..        ..         ..        .. 

eb:--------------------------------------------------------------------:
Bb:--------------------------------------------------------------------:
Gb:--------------------------------------------------------------------:
Db:-0-000000-7-88888h10p8-77777h8p7-0-000000-7-88888h10p8-77777--------:
Ab:-0-000000-7-88888h10p8-77777h8p7-0-000000-7-88888h10p8-77777--------:
Db:-0-000000-7-88888h10p8-77777h8p7-0-000000-7-88888h10p8-77777-10b\\\-:

(play twice)
eb:---------------------------------------------------------------:
Bb:---------------------------------------------------------------:
Gb:---------------------------------------------------------------:
Db:-0----3p2p0-0----3p2p0-3p2~----0----5p0-3p0-2h3p3----0~-----0~-:
Ab:-0-00-------0-00------------00-0-00--------------3/5-0~-----0~-:
Db:-0-00-------0-00------------00-0-00------------------0~-000-0~-:
      ..         ..            ..   ..

(clean w/little delay, play 8 times)
eb:----------0---:
Bb:-----6-----6--:
Gb:---5---5------:
Db:-3------------:
Ab:--------------:
Db:--------------:

eb:-----------------------------------------------------------------------:
Bb:-----------------------------------------------------------------------:
Gb:-----------------------------------------------------------------------:
Db:---0-000000-7-88888h10p8-77777h8p7-0-0000000-7-88888h10p8-77777--------:
Ab:-0-0-000000-7-88888h10p8-77777h8p7-0-0000000-7-88888h10p8-77777--------:
Db:-0-0-000000-7-88888h10p8-77777h8p7-0-0000000-7-88888h10p8-77777-10b\\\-:
    .

(play twice)
eb:------------------------------------------------------:
Bb:------------------------------------------------------:
Gb:------------------------------------------------------:
Db:-0----3p2p0-0----3p2p0-3p2~----0----5p0-3p0-2h3p2-----:
Ab:-0-00-------0-00------------00-0-00---------------3/5-:
Db:-0-00-------0-00------------00-0-00-------------------:
      ..         ..            ..   ..

eb:----------------------------------------------------:
Bb:----5555555------555555------555555------5555555-5~-:
Gb:----8888888------888888------888888------8888888-8~-:
Db:-0-------------0-----------0-----------0------------:
Ab:-0----------00-0--------00-0--------00-0------------:
Db:-0----------00-0--------00-0--------00-0------------:
               ..          ..          ..

eb:---------------------------------------12~-:
Bb:----5555----555555----5555----555555---16~-:
Gb:----8888----888888----8888----888888-------:
Db:-------------------------------------------:
Ab:-0~------0~--------0~------0~--------0-----:
Db:-0~------0~--------0~------0~--------0-----:
    .       .         .       .         .
Tap to rate this tab
 
# A B C D E F G H I J K L M N O P Q R S T U V W X Y Z