Song name
# A B C D E F G H I J K L M N O P Q R S T U V W X Y Z

Before Their Eyes - This Is Redemption This Is Our Lives Washed Clean tab

This is Redemption, This is Our Lives Washed Clean
Before their Eyes
Before their Eyes
Db Ab Db Gb Bb eb
Nataku/JJ Murphy


intro guitar 1

|-------------------3----------------------------------------------------------|
|-10--------------1-1--------5-6-5------1------1-1---18--20---------3--------1-|
|-10-------5-----0--0-9-10-5------5-----0-----0--0-19---19--17-5-5-5--5------0-|
|-10-12-10-5--0-2---2------5------5-----2--0-2---2-------------5-5----5--3-0-2-|
|-8--------3-3------3------3------3-5-3-3-3------3-------------3-3----3-5-3--3-|
|------------------------------------------------------------------------------|
verse, guitar 1
sounds like it goes
|------------------------------|
|----5-5-----10----10---5------|
|---5---5---10---10----5-------|
|--5-----5-10---10----5--------| repeat
|-3-------8----8\----3---------|
|------------------------------|

ending of verse, before heavy quick verse, guitar 1
|------------------|
|-----8---10----10-|
|---10---10----12--|
|--10---10----12---|
|-8----10----10----|
|------------------|

heavy quick part, guitar 1
|--------------------|
|--------------------|
|-10--------5--------|
|-0--(x16)--0--(x16)-|
|-9---------3--------| repeat
|-0---------0--------|

 guitar/bass conversion, comes in about 1/4 the way in
|------------------|
|------------------|
|------------------|
|-12-------3-------|
|-12-(x16)-3-(x16)-|
|-12-------3-------|

during breakdown, guitar 2
|-------------|
|---8-10-10---|
|-10-10-12-10-| repeat
|-------------|
|-------------|
|-------------|
Tap to rate this tab
# A B C D E F G H I J K L M N O P Q R S T U V W X Y Z