Song name
# A B C D E F G H I J K L M N O P Q R S T U V W X Y Z

Before Their Eyes - Life Was All A Dream tab

-------------------------------------------------------------------------------
			     Before Their Eyes - Life Was All A Dream Intro
-------------------------------------------------------------------------------
Tabbed by:thecrimson666

Tuning:drop c#

Guitar 1
    
e|----------------------------------------------|--------------|
B|----------------------------------------------|--------------|
G|---14-p12------------------14-p12-------------|--10-10-10----|
D|-0--------14h15-----(rest)--------14h15-------|------------0-|
A|-0--------------------------------------------|--8--8--8---0-|
E|-0--------------------------------------------|------------0-|
   .                                                         .


Guitar 2

e|----------------------------------------------|--------------|
B|----------------------------------------------|--------------|
G|-(rest)---------------------------------------|--------------|
D|---------0-7p5-------0-7p5--------------------|--3--3--3--0--|
A|---------0-----7h9---0-----7h9----------------|--3--3--3--0--|
E|---------0-----------0------------------------|--3--3--3--0--|
           .           .                                    .     

continue to do the same thing but without the rests.
Tap to rate this tab
# A B C D E F G H I J K L M N O P Q R S T U V W X Y Z