Song name
# A B C D E F G H I J K L M N O P Q R S T U V W X Y Z

Before Their Eyes - The Things We Stood Against tab

Tabbed by: Joshua Garcia (halofreak731@aol.com)

This is my first tab ever (so go easy). Seeing as no one else has tabbed
this song, I decided to be the first. Please rate and let me know if you have any 
corrections. Thank you.

Tuning: Drop D All strings 1/2 step down (D# A# D# G# B# E#)

Intro
Guitar 1
E#||------------------------------------------------------|
B#||------------------------------------------------------|
G#||------------------------------------------------------|
D#||-0-------------------------5--3-----3-----------------|
A#||-0-------------3-----------------5-----5--3--5--3-----|
D#||-0----0--3--5-----5--3--0--------------------------5--|
     .

E#||------------------------------------------------------|
B#||--------------------------------------------*8b-------|
G#||------------------------------------------------------|
D#||------------------------5--3-----3--------------------| x3
A#||------------3-----------------5-----5--3--------------|
D#||---0--3--5-----5--3--0--------------------------------|


Guitar 2
E#||---------------------------------------------------|
B#||----------------------------------*4b--------------|
G#||---------------------------------------------------|
D#||----0-0---0-0-3-3-5--0-0---0-0-3-------------------| x2
A#||----0-0---0-0-3-3-5--0-0---0-0-3-------------------|
D#||--000000000000303h50000000000003-------------------|


Guitar 1
E#||--------------------------|---------------------------|
B#||--------------------------|------------------8--------|
G#||-------------------5------|------------------x--------|
D#||---0-0---0--00-----x------|---0-0---0--00----5--------|
A#||---0-0---0--00-----3------|---0-0---0--00-------------|
D#||---0-0---0--00------------|---0-0---0--00-------------|


E#||--------------------------|---------------------------|
B#||--------------------------|---------------------------|
G#||--------------------------|---------------------------|
D#||---0-0---0--00------------|---0-0---0--00-------------|
A#||---0-0---0--00------------|---0-0---0--00-------------|
D#||---0-0---0--00------------|---0-0---0--00-------------|


Bridge
Guitar 1
E#||------------------------------------|
B#||------------------------------------|
G#||------------------------------------|
D#||--1p88888888888888887777777777777777|
A#||--1p88888888888888887777777777777777|
D#||--1p88888888888888887777777777777777|

E#||-------------------------|---------------------------|
B#||-------------------------|---------------------------|
G#||-------------------------|---------------------------|
D#||--5-55555-----5-5-5------|---3-33333-----2-2-2-------|
A#||--5-55555-----5-5-5------|---3-33333-----2-2-2-------|
D#||--5-55555-----5-5-5------|---3-33333-----2-2-2-------|

E#||-----------------------------------------------------|
B#||-----------------------------------------------------|
G#||------10----9-----------10---9-----------10---9------|
D#||-----------------------------------------------------|
A#||-----------------------------------------------------|
D#||--0-0----0----0-0-0-0-0----0---0-0-0-0-0----0---0-0--|

E#||--------------------------|--------------------------------|
B#||--------------------------|--------------------------------|
G#||--10---9---10-----12------|------10---9-----------10---9---|
D#||--------------------------|--------------------------------|
A#||--------------------------|--------------------------------|
D#||-----0---0----0-0---------|--8-8----8---8-8-8-8-8----8-----|

E#||--------------------------------------------|
B#||--------------------------------------------|
G#||--------------------------------------------|
D#||------------10---9-----10---9---10----------|
A#||--------------------------------------------|
D#||--8-8-8-8-8----8---8-8----8---8-------------|

E#||-----------------------------------------------------------------*13--|
B#||----------------------------------------------------------------------|
G#||-10-0-9-0-10-0-9-0-10-0-9-0-10-0-9-0-10-0-9-0-10-0-9-0-10-0-9-0-------|
D#||----------------------------------------------------------------------|
A#||----------------------------------------------------------------------|
D#||----------------------------------------------------------------------|


Chorus
Guitar 1
E#||--------------------------------------------------|
B#||--------------------------------------------------|
G#||--------------------------------------------------|
D#||--8-8-888-8-8-888--0-7-7-777--12-1212---10---1010-|
A#||--8-8-888-8-8-888--0-7-7-777--12-1212---10---1010-|
D#||--8-8-888-8-8-888--0-7-7-777--12-1212---10---1010-|


E#||--------------------------------------------------|
B#||--------------------------------------------------|
G#||--------------------------------------------------| x2
D#||--7-7-777-7-7-777---00--3-3---00--2-2----0h30-----|
A#||--7-7-777-7-7-777---00--3-3---00--2-2----0h30-----|
D#||--7-7-777-7-7-777---00--3-3---00--2-2----0h30-----|


Guitar 2 (listen for when to come in)
E#||--1-----0-----1-----0-----1----0---0-0-0-5-5-3---3-3--|
B#||------------------------------------------------------|
G#||----0-0---0-0---0-0---0-0---0----0--------------------|
D#||------------------------------------------------------|
A#||------------------------------------------------------|
D#||------------------------------------------------------|


E#||--1--0--1----0---1/--3--1--0--1--------|
B#||---------------------------------------|
G#||---------------------------------------|
D#||---------------------------------------|
A#||---------------------------------------|
D#||---------------------------------------|


Bridge 2
Guitar 1
E#||---------------------|
B#||---------------------|
G#||---------------------|
D#||--0-0-00-00--8--0----|
A#||--0-0-00-00--8--0----|
D#||--0-0-00-00--8--0----|
      . . .. ..     .         

E#||--------------------------------------------|
B#||--------------------------------------------|
G#||--------------------------------------------|
D#||--00-000-0--88-888-8--77-777-777-7-10101010-|
A#||--00-000-0--88-888-8--77-777-777-7-10101010-|
D#||--00-000-0--88-888-8--77-777-777-7-10101010-|


E#||--------------------------------------------|
B#||--------------------------------------------|
G#||--------------------------------------------|
D#||--00-000-0--88-888-8--77-777-777-777-7--0---|
A#||--00-000-0--88-888-8--77-777-777-777-7--0---|
D#||--00-000-0--88-888-8--77-777-777-777-7--0---|


Chorus


Solo
Guitar 2
E#||-(1p)--12--13/--15--13--12/--13----12--13/----15----13--12--13--|
B#||----------------------------------------------------------------|
G#||----------------------------------------------------------------|
D#||----------------------------------------------------------------|
A#||----------------------------------------------------------------|
D#||----------------------------------------------------------------|


E#||--1515131312121313121210101212101088101088778--7-8/-10--|
B#||--------------------------------------------------------|
G#||--------------------------------------------------------|
D#||--------------------------------------------------------|
A#||--------------------------------------------------------|
D#||--------------------------------------------------------|


E#||-8--7-8--151515151515151515151513131313131313131313131212121213131313-x2----|
B#||----------------------------------------------------------------------------|
G#||----------------------------------------------------------------------------|
D#||----------------------------------------------------------------------------|
A#||----------------------------------------------------------------------------|
D#||----------------------------------------------------------------------------|


E#||--1515151513131313121212-x16--10-let ring---|
B#||--------------------------------------------|
G#||--------------------------------------------|
D#||--------------------------------------------|
A#||--------------------------------------------|
D#||--------------------------------------------|


Guitar 1
E#||--------------------------------------------------------------|
B#||--------------------------------------------------------------|
G#||--------------------------------------------------------------|
D#||-0----10--7--8----7---0-----5--7--8------7777777777777777-----|
A#||-0----10--7--8----7---0-x2--5--7--8------7777777777777777-----|
D#||-0----10--7--8----7---0-----5--7--8------7777777777777777-----|
                                             ........                      

Bridge 3
Guitar 1
E#||------------|------------|----------------|--------------------------|
B#||------------|------------|----------------|--------------------------|
G#||------------|------------|----------------|--------------------------|
D#||--00---000--|--00---000--|-12\--00---000--|--00---000-----------0h1--|
A#||--00---000--|--00---000--|-12\--00---000--|--00---000-let ring--0h1--|
D#||--00---000--|--00---000--|-12\--00---000--|--00---000-----------0h1--|


E#||------------|------------|-----------------------------|
B#||------------|------------|-----------------------------|
G#||------------|------------|-----------------------------|
D#||--00---000--|--00---000--|--1/10----00---000-----------|
A#||--00---000--|--00---000--|--1/10----00---000-x4--------|
D#||--00---000--|--00---000--|--1/10----00---000-----------|


Guitar 2
E#||------------------------------------------|
B#||------------------------------------------|
G#||------------------------------------------|
D#||--------------------------0---------------|
A#||--888777555888777-4-5-x3--0---------------|
D#||--------------------------0---------------|



Chorus


Outro
Guitar 1
E#||---------------------------------------|---------------------------------------|
B#||-----------------------------*3--------|---------------------------------------|
G#||-----8---------------------------------|-----8-----------------------10--------|
D#||-----x---------------------------------|-----x-----------------------13b-------|
A#||-----6--6--------3---------------------|-----6--6--------3---------------------|
D#||--0-----6--3--5-----5--3--5------------|--0-----6--3--5-----5--3--5------------|


E#||---------------------------------------|---------------------------------------|
B#||-----------------------------8---------|---------------------------------------|
G#||-----8-----------------------7---------|-----8---------------------------------|
D#||-----x-----------------------x---------|-----x-----------------------19\0------|
A#||-----6--6--------3-----------5---------|-----6--6--------3-----------19\0------|
D#||--0-----6--3--5-----5--3--5------------|--0-----6--3--5-----5--3--5--19\0------|


E#||---------------------------------------|-----------------------------4---------|
B#||---------------------------------------|-----------------------------7b--------|
G#||-----8-----------------------5---------|-----8---------------------------------|
D#||-----x-----------------------x---------|-----x---------------------------------|
A#||-----6--6--------3-----------3---------|-----6--6--------3---------------------|
D#||--0-----6--3--5-----5--3--5------------|--0-----6--3--5-----5--3--5------------|


E#||---------------------------------------|-----------------------------10--------|
B#||---------------------------------------|-----------------------------13b-------|
G#||-----8-----------------------*7--------|-----8---------------------------------|
D#||-----x---------------------------------|-----x---------------------------------|
A#||-----6--6--------3---------------------|-----6--6--------3---------------------|
D#||--0-----6--3--5-----5--3--5------------|--0-----6--3--5-----5--3--5------------|


E#||---------------------------------------|
B#||---------------------------------------|
G#||-----8---------------------------------|
D#||-----x--------------0------------------|
A#||-----6--6-----------0------------------|
D#||--0-----6--3--5--3--0------------------|





Tablature Legend
----------------
 h   - hammer-on
 p   - pull-off
 b   - bend
 *   - pinch harmonic
 x   - mute note
 .   - palm mute
 /   - slide down
 \   - slide up
Tap to rate this tab
# A B C D E F G H I J K L M N O P Q R S T U V W X Y Z