Song name
# A B C D E F G H I J K L M N O P Q R S T U V W X Y Z

Before Their Eyes - New Kids In Town tab

Tabbed by: Joshua Garcia (halofreak731@aol.com)

Well I decided to give this song a try. I don't think anyone has it right, so, by 
ear, here's what I got. Please rate and let me know if you have any 
corrections. Thank you.

Tuning: Drop D All strings 1/2 step down (D# A# D# G# B# E#)

Intro
Guitar 1
E#||-------------------------------------------------------|
B#||-------------------------------------------------------|
G#||-----------7-7--x-7-5-5--x-5---------------------------|
D#||---7h107---7-7--x-7-5-5--x-5-3-3--x-3-5-555--3-5-6-----| x3
A#||---7h107---5-5--x-5-3-3--x-3-3-3--x-3-5-555--3-5-6-----|
D#||---7h107---------------------3-3--x-3-5-555--3-5-6-----|


Solo
Guitar 2
E#||---------------------------*13-------------------------|
B#||-8b10-10101010-8-6---------------------8/10------------|
G#||-------------------7--5-7------7--5-7-------10-7--5----|
D#||----------------------------------------------------5--|
A#||-------------------------------------------------------|
D#||-------------------------------------------------------|

E#||----------------------------------------------------------------|
B#||----------------------------------------------------------------|
G#||-------7-------5-----7--------------------------------5---------|
D#||--3--5---5-3-5---5-3---5-3-5--5/7--5--3-5--5/7-7-5h75---5-5h7---|
A#||----------------------------------------------------------------|
D#||----------------------------------------------------------------|


Pre-Chorus
Guitar 1
E#||----------------------------------------------------------------------------------|
B#||----------------------------------------------------------------------------------|
G#||--7-7-x-7-7---7-7-5-5-x-5-5---5-5-------------------------------------------------|
D#||--7-7-x-7-7---7-7-5-5-x-5-5---5-5-3-3-x-3-3---3-5---6-5-3-0-3-5---6-5-3-0-3-5-0---|
A#||--5-5-x-5-5---5-5-3-3-x-3-3---3-3-3-3-x-3-3---3-5---6-5-3-0-3-5---6-5-3-0-3-5-0---|
D#||----------------------------------3-3-x-3-3---3-5---6-5-3-0-3-5---6-5-3-0-3-5-0---|

E#||------------------------------------------------------------------------------------|
B#||------------------------------------------------------------------------------------|
G#||--7-7-x-7-7---7-7-5-5-x-5-5---5-5---------------------------------------------------|
D#||--7-7-x-7-7---7-7-5-5-x-5-5---5-5-3-3-x-3-3---3-5---6-5-3-0-3-5---6-5-3-0-3-5-3-0---|
A#||--5-5-x-5-5---5-5-3-3-x-3-3---3-3-3-3-x-3-3---3-5---6-5-3-0-3-5---6-5-3-0-3-5-3-0---|
D#||----------------------------------3-3-x-3-3---3-5---6-5-3-0-3-5---6-5-3-0-3-5-3-0---|


Chorus
Guitar 1
E#||--------------------------------------|
B#||--------------------------------------|
G#||--7-7-777----------5-5-555------------|
D#||--7-7-777-3-33-333-5-5-555-5-55-355---| x3
A#||--5-5-555-3-33-333-3-3-333-5-55-355---|
D#||----------3-33-333---------5-55-355---|

E#||----------------------------------------------------|
B#||----------------------------------------------------|
G#||--7-7-777-------------------------------------------|
D#||--7-7-777-3-33-3-5--6-5-3-0-3-5--6-5-3-0-3-5-3-0----|
A#||--5-5-555-3-33-3-5--6-5-3-0-3-5--6-5-3-0-3-5-3-0----|
D#||----------3-33-3-5--6-5-3-0-3-5--6-5-3-0-3-5-3-0----|


Guitar 2
E#||-------------------------------------------|
B#||--8b10-10-10-10-10-8-x3-6---------6-8------|
G#||--------------------------7---5-7-----7----|
D#||-------------------------------------------|
A#||-------------------------------------------|
D#||-------------------------------------------|


Pre-Chorus
Guitar 1
E#||------------------------------------------------------------------------------------------|
B#||------------------------------------------------------------------------------------------|
G#||----------7-7-x-7-7---7-7-5-5-x-5-5---5-5-------------------------------------------------|
D#||--7h107---7-7-x-7-7---7-7-5-5-x-5-5---5-5-3-3-x-3-3---3-5---6-5-3-0-3-5---6-5-3-0-3-5-0---|
A#||--7h107---5-5-x-5-5---5-5-3-3-x-3-3---3-3-3-3-x-3-3---3-5---6-5-3-0-3-5---6-5-3-0-3-5-0---|
D#||--7h107-----------------------------------3-3-x-3-3---3-5---6-5-3-0-3-5---6-5-3-0-3-5-0---|

E#||------------------------------------------------------------|
B#||------------------------------------------------------------|
G#||--7-7-x-7-7---7-7-5-5-x-5-5---5-5---------------------------|
D#||--7-7-x-7-7---7-7-5-5-x-5-5---5-5-3-3-x-3-3---3-5-3-12p0----|
A#||--5-5-x-5-5---5-5-3-3-x-3-3---3-3-3-3-x-3-3---3-5-3-12p0----|
D#||----------------------------------3-3-x-3-3---3-5-3-12p0----|


Chorus
Guitar 1
E#||---------------------------------------------|
B#||---------------------------------------------|
G#||--7-7-777----------5-5-555-------------------|
D#||--7-7-777-3-33-333-5-5-555-5-55-355------0---|
A#||--5-5-555-3-33-333-3-3-333-5-55-355--x3--0---|
D#||----------3-33-333---------5-55-355------0---|


Guitar 2
E#||-------------------------------------------|
B#||--8b10-10-10-10-10-8-x3-6---------6-8------|
G#||--------------------------7---5-7-----7----|
D#||-------------------------------------------|
A#||-------------------------------------------|
D#||-------------------------------------------|

Bridge
Guitar 1
E#||------------------------------------------------------------|
B#||------------------------------------------------------------|
G#||------------------------------------------------------------|
D#||------------------------------------------------------------|
A#||------------------------------------------------------------|
D#||-0-0-5-6--0-5-6--0-5-6--5-3-0--0-5-6--0-5-6--0-5-6-5-3-5----|

E#||------------------------------------------------------------|
B#||------------------------------------------------------------|
G#||------------------------------------------------------------|
D#||-0-0-5-6--0-5-6--0-5-6--5-3-0--0-5-6--0-5-6--0-5-6-5-3-5----| x2
A#||-0-0-5-6--0-5-6--0-5-6--5-3-0--0-5-6--0-5-6--0-5-6-5-3-5----|
D#||-0-0-5-6--0-5-6--0-5-6--5-3-0--0-5-6--0-5-6--0-5-6-5-3-5----|

E#||------------------------------------------------------------|
B#||------------------------------------------------------------|
G#||------------------------------------------------------------|
D#||-0---0-0---0-0---0--6-5-6-5-6-5-3-0---0-0---0--333355556666-|
A#||-0---0-0---0-0---0--6-5-6-5-6-5-3-0---0-0---0--333355556666-|
D#||-0---0-0---0-0---0--6-5-6-5-6-5-3-0---0-0---0--333355556666-|


Chorus
Guitar 1
E#||-------------------------------------------|
B#||-------------------------------------------|
G#||--7-7-777----------5-5-555-----------------|
D#||--7-7-777-3-33-333-5-5-555-5-55-355-----0--|
A#||--5-5-555-3-33-333-3-3-333-5-55-355-x3--0--|
D#||----------3-33-333---------5-55-355-----0--|


Guitar 2
E#||-------------------------------------------|
B#||--8b10-10-10-10-10-8-x3-6---------6-8------|
G#||--------------------------7---5-7-----7----|
D#||-------------------------------------------| x2
A#||-------------------------------------------|
D#||-------------------------------------------|




Tablature Legend
----------------
 h   - hammer-on
 p   - pull-off
 b   - bend
 *   - pinch harmonic
 x   - mute note
 .   - palm mute
 /   - slide down
 \   - slide up
Tap to rate this tab
# A B C D E F G H I J K L M N O P Q R S T U V W X Y Z