Song name
# A B C D E F G H I J K L M N O P Q R S T U V W X Y Z

Before Their Eyes - News Kids In Town tab

Drop C#   Tab by Herbert

Intro:
----------------------------------------|
----------------------------------------|
----------------------------------------|
---------7-7-X7-5-5-X5------------------|
-0-3-0---5-5-X5-3-3-X3-3-3-X3--5-555355-|
-----------------------3-3-X3--5-555355-|

Solo:
----------------------------------------------------------------------|
-10--10-10-10-10|-----------------------------------------------------|
-13--13-13-13-13|-10-----------10*-----------12/14-10-----------------|
---------------------12--10-12----12--X-10-12----------12-10-12-------|
----------------------------------------------------------------------|
----------------------------------------------------------------------|

------------------------------------------------------------------------|
------------------------------------------------------------------------|
------------------------------------------------------------------------|
-----12--------10--------12----------------------------------10---10-12-|
-8-10---10-8-10---10-8-10---10-8-10--12-10-8-10--12-10h12(x4)---12------|
------------------------------------------------------------------------|

Verse:
----------------------------------------------------------------------|
----------------------------------------------------------------------|
----------------------------------------------------------------------|
---7-7-X7-7--77-5-5-X5-5--55------------------------------------------| x2
---5-5-X5-5--55-3-3-X3-3--33-3-3-X3-3--3p5----------------------------|
-----------------------------3-3-X3-3--3p5--6-5-3-0-3-5--6-5-3-0-3-5--|

Chorus: Guitar #1
----------------------------------------------------------------------|
----------------------------------------------------------------------|
--------------------5-5-555-------------------------------------------|
-0-0-000--3-33-333--5-5-555--5-55-535---------------------------------|
-0-0-000--3-33-333--3-3-333--5-55-535---------------------------------|
-0-0-000--3-33-333-----------5-55-535---------------------------------|

----------------------------------------------------------------------|
----------------------------------------------------------------------|
--------------------5-5-555-------------------------------------------|
-0-0-000--3-33-333--5-5-555--5-55-555---------------------------------|
-0-0-000--3-33-333--3-3-333--5-55-555---------------------------------|
-0-0-000--3-33-333-----------5-55-555---------------------------------|

----------------------------------------------------------------------|
----------------------------------------------------------------------|
--------------------5-5-555-------------------------------------------|
-0-0-000--3-33-333--5-5-555--5-55-535---------------------------------|
-0-0-000--3-33-333--3-3-333--5-55-535---------------------------------|
-0-0-000--3-33-333-----------5-55-535---------------------------------|

----------------------------------------------------------------------|
----------------------------------------------------------------------|
----------------------------------------------------------------------|
-0-0-000--3-33-33p5---------------------------------------------------|
-0-0-000--3-33-33p5---------------------------0-----------------------|
-0-0-000--3-33-33p5--6-5-3-0-3-5--6-5-3-0-3-5-0-----------------------|

Guitar #2 (no sure)
----------------------------------------------------------------------|
----------------------------------------------------------------------|
--7-7-777-10-101010--12-12-121212--14-1414-141414---------------------|
--x-x-xxx--x-xx-xxx--X--X--XXXXXX--X--XXX--XXXXXX---------------------|
--5-5-555--8-88-888--10-10-101010--12-1212-121212---------------------|
----------------------------------------------------------------------|

Verse:
----------------------------------------------------------------------------|
----------------------------------------------------------------------------|
----------------------------------------------------------------------------|
---------7-7-X7-7--77-5-5-X5-5--55------------------------------------------|
-0-3-0---5-5-X5-5--55-3-3-X3-3--33-3-3-X3-3--3p5----------------------------|
-----------------------------------3-3-X3-3--3p5--6-5-3-0-3-5--6-5-3-0-3-5--|

----------------------------------------------------------------------|
----------------------------------------------------------------------|
----------------------------------------------------------------------|
---7-7-X7-7--77-5-5-X5-5--55------------------------------------------|
---5-5-X5-5--55-3-3-X3-3--33-3-3-X3-3--3p5-3-5!-----------------------|
-----------------------------3-3-X3-3--3p5-3-5!-----------------------|

Chorus: Guitar #1
----------------------------------------------------------------------|
----------------------------------------------------------------------|
--------------------5-5-555-------------------------------------------|
-0-0-000--3-33-333--5-5-555--5-55-535---------------------------------|
-0-0-000--3-33-333--3-3-333--5-55-535---------------------------------|
-0-0-000--3-33-333-----------5-55-535---------------------------------|

----------------------------------------------------------------------|
----------------------------------------------------------------------|
--------------------5-5-555-------------------------------------------|
-0-0-000--3-33-333--5-5-555--5-55-555---------------------------------|
-0-0-000--3-33-333--3-3-333--5-55-555---------------------------------|
-0-0-000--3-33-333-----------5-55-555---------------------------------|


----------------------------------------------------------------------|
----------------------------------------------------------------------|
--------------------5-5-555-------------------------------------------|
-0-0-000--3-33-333--5-5-555--5-55-535---------------------------------|
-0-0-000--3-33-333--3-3-333--5-55-535---------------------------------|
-0-0-000--3-33-333-----------5-55-535---------------------------------|

----------------------------------------------------------------------|
----------------------------------------------------------------------|
--------------------5-5-555-------------------------------------------|
-0-0-000--3-33-333--5-5-555--5-55-535-0____---------------------------|
-0-0-000--3-33-333--3-3-333--5-55-535-0____---------------------------|
-0-0-000--3-33-333-----------5-55-535-0____---------------------------|

Guitar #2 (no sure)
----------------------------------------------------------------------|
----------------------------------------------------------------------|
--7-7-777-10-101010--12-12-121212--14-1414-141414---------------------|
--x-x-xxx--x-xx-xxx--X--X--XXXXXX--X--XXX--XXXXXX---------------------| x2
--5-5-555--8-88-888--10-10-101010--12-1212-121212---------------------|
----------------------------------------------------------------------|

-5-5555p3--5-5555p3--5-5555-3-------------3--5-5555p3--5-5555p3--5-5555-3-------------3-----|
------------------------------6-3---1-3-6---------------------------------6-3---1-3-6-------|
----------------------------------------------------------------------------------------7!--|
--------------------------------------------------------------------------------------------|
----------------------------------------------------------------------------------------5!--|
--------------------------------------------------------------------------------------------|

Break:
-----------------------------------------------------------|
-----------------------------------------------------------|
-----------------------------------------------------------|
-----------------------------------------------------------|
-----------------------------------------------------------|
-0-0-5-6--0-5-6--0-5-6--5-3-0--0-0-5-6--0-5-6--0-5-6-5-3-5-|


-----------------------------------------------------------|
-----------------------------------------------------------|
-----------------------------------------------------------|
-----------------------------------------------------------| x2
-0-0-5-6--0-5-6--0-5-6--5-3-0--0-0-5-6--0-5-6--0-5-6-5-3-5-|
-0-0-5-6--0-5-6--0-5-6--5-3-0--0-0-5-6--0-5-6--0-5-6-5-3-5-|

----------------------------------------------------------------------|
----------------------------------------------------------------------|
-0_---0-0_---0-0_---0-6-5-6-5-6-5-3-0_---0-0_---0--3-3333333-55556666-|
-0_---0-0_---0-0_---0-6-5-6-5-6-5-3-0_---0-0_---0--3-3333333-55556666-|
-0_---0-0_---0-0_---0-6-5-6-5-6-5-3-0_---0-0_---0--3-3333333-55556666-|


Chorus: Guitar #1
----------------------------------------------------------------------|
----------------------------------------------------------------------|
--------------------5-5-555-------------------------------------------|
-0-0-000--3-33-333--5-5-555--5-55-535---------------------------------|
-0-0-000--3-33-333--3-3-333--5-55-535---------------------------------|
-0-0-000--3-33-333-----------5-55-535---------------------------------|

----------------------------------------------------------------------|
----------------------------------------------------------------------|
--------------------5-5-555-------------------------------------------|
-0-0-000--3-33-333--5-5-555--5-55-555---------------------------------|
-0-0-000--3-33-333--3-3-333--5-55-555---------------------------------|
-0-0-000--3-33-333-----------5-55-555---------------------------------|


----------------------------------------------------------------------|
----------------------------------------------------------------------|
--------------------5-5-555-------------------------------------------|
-0-0-000--3-33-333--5-5-555--5-55-535---------------------------------|
-0-0-000--3-33-333--3-3-333--5-55-535---------------------------------|
-0-0-000--3-33-333-----------5-55-535---------------------------------|

----------------------------------------------------------------------|
----------------------------------------------------------------------|
--------------------5-5-555-------------------------------------------|
-0-0-000--3-33-333--5-5-555--5-55-535-0____---------------------------|
-0-0-000--3-33-333--3-3-333--5-55-535-0____---------------------------|
-0-0-000--3-33-333-----------5-55-535-0____---------------------------|


Guitar 2 (middle of the chorus):
-5-5555p3--5-5555p3--5-5555-3-------------3--5-5555p3--5-5555p3--5-5555-3-------------3----|
------------------------------6-3---1-3-6---------------------------------6-3---1-3-6---3!-|
-------------------------------------------------------------------------------------------|
-------------------------------------------------------------------------------------------|
-------------------------------------------------------------------------------------------|
-------------------------------------------------------------------------------------------|
Tap to rate this tab
# A B C D E F G H I J K L M N O P Q R S T U V W X Y Z