Song name
# A B C D E F G H I J K L M N O P Q R S T U V W X Y Z

Before Their Eyes - Life Was All A Dream tab

Tabbed by Joshua Garcia (halofreak731@aol.com)

Tabs for the song: Life Was All A Dream by Before Their Eyes
Please rate and let me know if you have any corrections, thank you.

Other than some parts for the 2nd guitar, this is about 98% accurate, enjoy!


Tuning: Drop D 1/2 Step Down (D# A# D# G# B# E#)


Intro
Guitar 1:
E#||-------------------------------------------------|
B#||---10-8----------------------10-8----------------|
G#||--------9-10----------------------9-10-----------|
D#||-0------------0------------0------------8-8-8----|
A#||-0------------0------------0------------8-8-8----|
D#||-0------------0------------0------------8-8-8----|


E#||-------------------------------------------------|
B#||---10-8---------10-8---------10-8----------------|
G#||--------9-10---------9-10---------9-10-----------|
D#||-0------------0------------0------------8-8-8----| X2
A#||-0------------0------------0------------8-8-8----|
D#||-0------------0------------0------------8-8-8----|



Guitar 2:
E#||-------------------------------------------------|
B#||-------------------------------------------------|
G#||----------------------------------------10-10-10-|
D#||-0------------0--7-5-------0--7-5-------10-10-10-|
A#||-0------------0------7-8---0------7-8---8--8--8--|
D#||-0------------0------------0---------------------|


E#||-------------------------------------------------|
B#||-------------------------------------------------|
G#||----------------------------------------10-10-10-|
D#||-0--7-5-------0--7-5-------0--7-5-------10-10-10-| x2
A#||-0------7-8---0------7-8---0------7-8---8--8--8--|
D#||-0------------0------------0---------------------|



Guitar 1:
E#||-------------------------------------------------|
B#||-------------------------------------------------|
G#||-------------------------------------------------|
D#||--0-0000-0--0000-0--0000-0-0-0-------------------| X4
A#||--0-0000-0--0000-0--0000-0-0-0-------------------|
D#||--0-0000-0--0000-0--0000-0-0-0-------------------|
      . .... .  .... .  .... . . .


Pre-Chorus
Guitar 1:
E#||-------------------------------------------------|
B#||-------------------------------------------------|
G#||----10-10----9--9-----7--7-----5--5--------------|
D#||-0--x--x--0--x--x--0--x--x--0--x--x--------------|
A#||-0--8--8--0--7--7--0--5--5--0--3--3--------------|
D#||-0--------0--------0--------0--------------------|



Chorus
Guitar 1:
E#||-----------------------------------------------------------|
B#||-----------------------------------------------------------|
G#||-----------------------------------------------------------|
D#||--88-8--88---88-8--88--8888--00-0-000-0-0--55-5--5-10-8-7--|
A#||--88-8--88---88-8--88--8888--00-0-000-0-0--55-5--5-10-8-7--|
D#||--88-8--88---88-8--88--8888--00-0-000-0-0--55-5--5-10-8-7--|


E#||-----------------------------------------------------------|
B#||-----------------------------------------------------------|
G#||-----------------------------------------------------------|
D#||--88-8--88---88-8--88--xxxx--00-0-000-0-0--55-5--5-8-7-5---|
A#||--88-8--88---88-8--88--xxxx--00-0-000-0-0--55-5--5-8-7-5---|
D#||--88-8--88---88-8--88--xxxx--00-0-000-0-0--55-5--5-8-7-5---|



Guitar 2 (Harmonic):
E#||-13-------13-------13-------15-13-12-13-------13-------13---------------|
B#||----10-11----10-11----10-11-------------10-11----10-11----10-11-8-------|
G#||------------------------------------------------------------------10-9--|
D#||------------------------------------------------------------------------| x2
A#||------------------------------------------------------------------------|
D#||------------------------------------------------------------------------|



Bridge
Guitar 1:
E#||------------------------------------------------------|
B#||------------------------------------------------------|
G#||-----------------------8------8-8-------8-----8-------|
D#||-0---0---0---0-0-0--0--7---0--7-7--0-0--7--0--7--0-0--|
A#||-0---0---0---0-0-0--0--6---0--6-6--0-0--6--0--6--0-0--|
D#||-0---0---0---0-0-0--0------0-------0-0-----0-----0-0--|


E#||------------------------------------------------------|
B#||------------------------------------------------------|
G#||------------------------------------------------------|
D#||-------------------------0-0---------------------0-0--|
A#||-------------------------0-0---------------------0-0--|
D#||-0-1-4-1-4-1-0-1-4-1-0-1-0-0-4-1-4-1-0-1-4-1-0-1-0-0--|



Pre-Chorus
Guitar 1:
E#||-------------------------------------------------|
B#||-------------------------------------------------|
G#||----10-10----9--9-----7--7-----------------------|
D#||-0--x--x--0--x--x--0--x--x--0--------------------| x2
A#||-0--8--8--0--7--7--0--5--5--0--------------------|
D#||-0--------0--------0--------0--8-7-5-------------|
                                   . . .


Chorus



Bridge
Guitar 1:
E#||--------------------------------|
B#||--------------------------------|
G#||--------------------------------| X2
D#||--0-----------------------------|
A#||--0-----------------------------|
D#||--0---6-6-6-6-6-6-8-8-8-8b9-9---|


E#||--------------------------------|
B#||--------------------------------|
G#||--------------------------------|
D#||--0------0------0------8-7-5----| X4
A#||--0------0------0------8-7-5----|
D#||--0-0000-0-0000-0-0000-8-7-5----|
        ....   ....   ....

E#||------------------------------------------------------------------|
B#||------------------------------------------------------------------|
G#||------------------------------------------------------------------|
D#||--00-0-0000000-1010-10-10101010101010-88-8-8888888-77-7-7777777---|
A#||--00-0-0000000-1010-10-10101010101010-88-8-8888888-77-7-7777777---|
D#||--00-0-0000000-1010-10-10101010101010-88-8-8888888-77-7-7777777---|


E#||-----------------------------------------------------------------------------------|
B#||-----------------------------------------------------------------------------------|
G#||-----------------------------------------------------------------------------------|
D#||--00-000-000-000-0-1010-101010-101010-101010-10-88-888-888-888-8-77-777-777-77777--|
A#||--00-000-000-000-0-1010-101010-101010-101010-10-88-888-888-888-8-77-777-777-77777--|
D#||--00-000-000-000-0-1010-101010-101010-101010-10-88-888-888-888-8-77-777-777-77777--|



Verse
Guitar 1:
E#||--------------------------------------------------------|
B#||--------------------------------------------------------|
G#||--------------------------------------------------------|
D#||-00-0------------------0--0------------------0-10101010-|
A#||-00-0------------------0--0------------------0-10101010-|
D#||-00-0------------------0--0------------------0-10101010-|


E#||-------------------------------------------------------|
B#||-------------------------------------------------------|
G#||-------------------------------------------------------|
D#||-00-0------------------0--0------------------0-8888----|
A#||-00-0------------------0--0------------------0-8888----|
D#||-00-0------------------0--0------------------0-8888----|


E#||-------------------------------------------------------------|
B#||-------------------------------------------------------------|
G#||-------------------------------------------------------------|
D#||-00-0-1010101010101010-0-10-0-1010101010101010-0-10101010----|
A#||-00-0------------------0----0------------------0-10101010----|
D#||-00-0------------------0----0------------------0-10101010----|


E#||---------------------------------------------------------|
B#||---------------------------------------------------------|
G#||---------------------------------------------------------|
D#||-00-0-1010101010101010-0-10-0-1010101010101010-0-8888----|
A#||-00-0------------------0----0------------------0-8888----|
D#||-00-0------------------0----0------------------0-8888----|



Guitar 2:
E#||---------------------------|
B#||--77777777777777777777 10--|
G#||---------------------------|
D#||---------------------------| x4
A#||---------------------------|
D#||---------------------------|
                           .

E#||---------------------------|
B#||-------10-------10---------|
G#||-10-10----10-10----10-10---|
D#||---------------------------|
A#||---------------------------|
D#||---------------------------|



Chorus
Guitar 1:
E#||-----------------------------------------------------------|
B#||-----------------------------------------------------------|
G#||-----------------------------------------------------------|
D#||--88-8--88---88-8--88--8888--00-0-000-0-0--55-5--5-10-8-7--|
A#||--88-8--88---88-8--88--8888--00-0-000-0-0--55-5--5-10-8-7--|
D#||--88-8--88---88-8--88--8888--00-0-000-0-0--55-5--5-10-8-7--|


E#||-----------------------------------------------------------|
B#||-----------------------------------------------------------|
G#||-----------------------------------------------------------|
D#||--88-8--88---88-8--88--xxxx--00-0-000-0-0--55-5---5-8-7-5--|
A#||--88-8--88---88-8--88--xxxx--00-0-000-0-0--55-5---5-8-7-5--|
D#||--88-8--88---88-8--88--xxxx--00-0-000-0-0--55-5---5-8-7-5--|



Guitar 2 (Harmonic):
E#||----------------------------|
B#||----------------------------|
G#||--------10-------10---------|
D#||--10-10----10-10----10-10---| x4
A#||----------------------------|
D#||----------------------------|



Outro
Guitar 1:
E#||-----------------------------------------------------|
B#||-----------------------------------------------------|
G#||-----------------------------------------------------|
D#||-88-8-88-8-8-00-0-00-0-0-77-7-77-7-7-77-7-7-10-8-7---|
A#||-88-8-88-8-8-00-0-00-0-0-77-7-77-7-7-77-7-7-10-8-7---|
D#||-88-8-88-8-8-00-0-00-0-0-77-7-77-7-7-77-7-7-10-8-7---|


E#||-----------------------------------------------------|
B#||-----------------------------------------------------|
G#||-----------------------------------------------------|
D#||-88-8-88-8-8-00-0-00-0-0-77-7-77-7-7-77-7-7-777777---|
A#||-88-8-88-8-8-00-0-00-0-0-77-7-77-7-7-77-7-7-777777---|
D#||-88-8-88-8-8-00-0-00-0-0-77-7-77-7-7-77-7-7-777777---|



Guitar 2 (Harmonic):
E#||--------------------------|
B#||------13--10--11/13-13----|
G#||--------------------------|
D#||--12----------------------| x8
A#||--------------------------|
D#||--------------------------|



Guitar 1:
E#||------------------------------|
B#||------------------------------|
G#||------------------------------|
D#||--0------0------0------1-1-1--| x2
A#||--0------0------0------1-1-1--|
D#||--0-0000-0-0000-0-0000-1-1-1--|
        ....   ....   ....

E#||-------------------------------|
B#||-------------------------------|
G#||-------------------------------|
D#||--0------0------0------1-1-1---|
A#||--0------0------0------1-1-1---|
D#||--0------0------0------1-1-1---|



Guitar 2:
E#||------------------------------|
B#||------------------------------|
G#||-----------------------8-8-8--|
D#||--0------0------0------7-7-7--| x2
A#||--0------0------0------6-6-6--|
D#||--0-0000-0-0000-0-0000--------|
        ....   ....   ....

E#||-------------------------------|
B#||-------------------------------|
G#||-----------------------8-8-8---|
D#||--0------0------0------7-7-7---|
A#||--0------0------0------6-6-6---|
D#||--0------0------0--------------|



Tablature Legend
----------------
 h   - hammer-on
 p   - pull-off
 b   - bend
 *   - pinch harmonic
 x   - mute note
 .   - palm mute
 /   - slide down
 \   - slide up
Tap to rate this tab
# A B C D E F G H I J K L M N O P Q R S T U V W X Y Z