Song name
# A B C D E F G H I J K L M N O P Q R S T U V W X Y Z

Before Their Eyes - The Way We Operate tab

Tabbed by: Joshua Garcia (halofreak731@aol.com)

Tabs For the song: The Way We Operate by Before Their Eyes
Please rate and let me know if you have any corrections. Thank you.
Strumming for the 2nd guitar may be a bit off, but the notes are 100% accurate

Tuning: Drop D 1/2 Step Down (D# A# D# G# B# E#)


Intro
Guitar 1:
E#||----------------------------------------------------------------------------------------|
B#||----------------------------------------------------------------------------------------|
G#||----------------------------------------------------------------------------------------|
D#||-7777777-7-777-777-10101010101010-10-101010-101010-3333333-3-333-333-5555555-5-555-555--|
A#||-7777777-7-777-777-10101010101010-10-101010-101010-3333333-3-333-333-5555555-5-555-555--|
D#||-7777777-7-777-777-10101010101010-10-101010-101010-3333333-3-333-333-5555555-5-555-555--|


E#||----------------------------------------------------------------------------------------|
B#||----------------------------------------------------------------------------------------|
G#||----------------------------------------------------------------------------------------|
D#||-7777777-7-777-777-10101010101010-10-101010-101010-3333333-3-333-333-55555555-----------|
A#||-7777777-7-777-777-10101010101010-10-101010-101010-3333333-3-333-333-55555555-----------|
D#||-7777777-7-777-777-10101010101010-10-101010-101010-3333333-3-333-333-55555555-----------|



Guitar 2:
E#||--------8-----------------|-----------8-------8-------|
B#||----6-8----8-6------------|----6-8------8-6-----------|
G#||--5------------5---x13----|--5--------------5---------|
D#||--------------------------|---------------------------|
A#||--------------------------|---------------------------|
D#||--------------------------|---------------------------|



Verse
Guitar 2:
E#||------------------------------------------------|
B#||------5----------8-----------13-----------12----|
G#||----5----------9----------12-----------12-------| x2
D#||--7---------10---------10-----------10----------|
A#||------------------------------------------------|
D#||------------------------------------------------|



Guitar 1:
E#||-----------------------------------|
B#||-----------------------------------|
G#||-----------------------------------|
D#||--5h7-3h5-2h3-----5h--7-3h5-2h3----|
A#||--5h7-3h5-2h3-----5h--7-3h5-2h3----|
D#||--5h7-3h5-2h3-----5h--7-3h5-2h3----|



Chorus
Guitar 1:
E#||-------------------------------------------|---------------------------------------------|
B#||-------------------------------------------|---------------------------------------------|
G#||--------10-10--------5-5-------------------|--------10-10--------5-5---------------------| x2
D#||--7-7---x--x---3-3---x-x--5-555555555555---|--7-7---x--x---3-3---x-x--5-55555555555-666--|
A#||--7-7---7--7---3-3---3-3--5-555555555555---|--7-7---7--7---3-3---3-3--5-55555555555-666--|
D#||--7-7----------3-3--------5-555555555555---|--7-7----------3-3--------5-55555555555-666--|



Pre-Verse
Guitar 1:
E#||-------------------------------------------------------------------------------------|
B#||-------------------------------------------------------------------------------------|
G#||-------------------------------------------------------------------------------------|
D#||-------------------------------------------------------------------------------------|
A#||-------------------------------------------------------------------------------------|
D#||--77777777777777771010101010101010101010101010101033333333333333335555555555555555---|
      ................................................................................



Verse
Guitar 1:
E#||-----------------------------------------------------------------------|
B#||-----------------------------------------------------------------------|
G#||-----------------------------------------------------------------------|
D#||-7-7---7--7---7--10-10---10--10---10--3-3---3--3---3--5-5---5--5---5---|
A#||-7-7---7--7---7--10-10---10--10---10--3-3---3--3---3--5-5---5--5---5---|
D#||-7-7---7--7---7--10-10---10--10---10--3-3---3--3---3--5-5---5--5---5---|


E#||------------------------------|
B#||------------------------------|
G#||------------------------------| x2
D#||-3-----5-----7----------10----|
A#||-3-----5-----7----------10----|
D#||-3-----5-----7----------10----|



Guitar 2:
E#||-11-12-11----------------------11-12-11-------------15--12---------|
B#||----------13-12-13-12-13-12-13----------13-12-13-12----------------|
G#||-------------------------------------------------------------------| x2
D#||-------------------------------------------------------------------|
A#||-------------------------------------------------------------------|
D#||-------------------------------------------------------------------|



Chorus
Guitar 1:
E#||-------------------------------------------|---------------------------------------------|
B#||-------------------------------------------|---------------------------------------------|
G#||--------10-10--------5-5-------------------|--------10-10--------5-5---------------------|
D#||--7-7---x--x---3-3---x-x--5-555555555555---|--7-7---x--x---3-3---x-x--5-55555555555-66---|
A#||--7-7---7--7---3-3---3-3--5-555555555555---|--7-7---7--7---3-3---3-3--5-55555555555-66---|
D#||--7-7----------3-3--------5-555555555555---|--7-7----------3-3--------5-55555555555-66---|


E#||-------------------------------------------|---------------------------------------------|
B#||-------------------------------------------|---------------------------------------------|
G#||--------10-10--------5-5-------------------|--------10-10--------5-5---------------------|
D#||--7-7---x--x---3-3---x-x--5-555555555555---|--7-7---x--x---3-3---x-x--5-55555555555-6666-|
A#||--7-7---7--7---3-3---3-3--5-555555555555---|--7-7---7--7---3-3---3-3--5-55555555555-6666-|
D#||--7-7----------3-3--------5-555555555555---|--7-7----------3-3--------5-55555555555-6666-|



Bridge
Guitar 1:
E#||-----------------------------|
B#||-----------------------------|
G#||-----------------------------| x4
D#||-7----------------------7-5--|
A#||-7-77777777777777777777-7-5--|
D#||-7----------------------7-5--|



Guitar 2:
E#||-----------------------------|
B#||-----------------------------|
G#||---55555555555555555555------| x2
D#||-----------------------------|
A#||-----------------------------|
D#||-----------------------------|



Breakdown
Guitar 1:
E#||------------------------------------------------------|
B#||------------------------------------------------------|
G#||------------------------------------------------------|
D#||-5-------0---0-0-0---0---0-0-0------0-0-0---0---0-0---|
A#||-5-------0---0-0-0---0---0-0-0------0-0-0---0---0-0---|
D#||-5-------0---0-0-0---0---0-0-0------0-0-0---0---0-0---|


E#||------------------------------|-------------------------|
B#||------------------------------|-------------------------|
G#||------------------------------|-------------------------|
D#||-3-----5-----7----------10----|-3-----5-5-5-5-5-5-5-5---|
A#||-3-----5-----7----------10----|-3-----5-5-5-5-5-5-5-5---|
D#||-3-----5-----7----------10----|-3-----5-5-5-5-5-5-5-5---|
                                          . . . . . . . .


Guitar 2:
E#||--12--10-12-10-----------------------------12--10--15---------------------|
B#||---------------13--12-13-12-13-12-13-12-13------------13--13-12-13-12-13--|
G#||--------------------------------------------------------------------------|
D#||--------------------------------------------------------------------------|
A#||--------------------------------------------------------------------------|
D#||--------------------------------------------------------------------------|


E#||--12--10-12-10--------------------------------|
B#||---------------13--12-13-12-13-12-13-12-13----|
G#||----------------------------------------------|
D#||----------------------------------------------|
A#||----------------------------------------------|
D#||----------------------------------------------|



Outro
Guitar 1:
E#||-----------------------------------------------------------------------|
B#||-----------------------------------------------------------------------|
G#||-----------5-5--------------7-7----------------------------------------| x3
D#||-7-7-7-7---x-x--0-3-3-3-3---x-x--0-5-5-5-5-5-5-5-5-5-5-5-5-6-6-6-6-----|
A#||-7-7-7-7---3-3--0-3-3-3-3---5-5--0-5-5-5-5-5-5-5-5-5-5-5-5-6-6-6-6-----|
D#||-7-7-7-7--------0-3-3-3-3--------0-5-5-5-5-5-5-5-5-5-5-5-5-6-6-6-6-----|


E#||-----------------------------------------------------------------------|
B#||-----------------------------------------------------------------------|
G#||-----------5-5--------------7-7----------------------------------------|
D#||-7-7-7-7---x-x--0-3-3-3-3---x-x--0-5-5-5-5-5-5-5-5-5-5-5-5-6-6-6-6--7--|
A#||-7-7-7-7---3-3--0-3-3-3-3---5-5--0-5-5-5-5-5-5-5-5-5-5-5-5-6-6-6-6--7--|
D#||-7-7-7-7--------0-3-3-3-3--------0-5-5-5-5-5-5-5-5-5-5-5-5-6-6-6-6--7--|




Tablature Legend
----------------
 h   - hammer-on
 p   - pull-off
 b   - bend
 r   - release bend
 *   - pinch harmonic
 x   - mute note
 .   - palm mute
 /   - slide down
 \   - slide up
Tap to rate this tab
# A B C D E F G H I J K L M N O P Q R S T U V W X Y Z