Song name
# A B C D E F G H I J K L M N O P Q R S T U V W X Y Z

Before Their Eyes - Rick Vs Nick tab

Tabbed by: Joshua Garcia (halofreak731@aol.com)

Tabs for the song: Rick vs. Nick by Before Their Eyes
Please rate and let me know if you have any corrections. Thank you.


Tuning: Drop C# (C# G# C# F# A# D#)


Intro
Guitar 1:
D#||------------------------------------|
A#||------------------------------------|
F#||------------------------------------| x5
C#||-7777777777777777-5555555555555555--|
G#||-xxxxxxxxxxxxxxxx-xxxxxxxxxxxxxxxx--|
C#||-7777777777777777-5555555555555555--|


Guitar 2:
D#||------------------------------------|
A#||------------------------------------|
F#||------------------------------------| x4
C#||-1111111111111111-5555555555555555--|
G#||-1111111111111111-5555555555555555--|
C#||-1111111111111111-5555555555555555--|



Verse
Guitar 1/2:
D#||-------------------------------------------------------------------|
A#||-------------------------------------------------------------------|
F#||-----------3-----2-------------------------------7-----------------| x2
C#||-----3-----------------3-------------8-----7-----------7-----7h8---|
G#||-----------------------------5h6-----------------------------------|
C#||-1-1---1-1---1-1---1-1---1-1-----5-5---5-5---5-5---5-5---5-5-------|
     . .   . .   . .   . .   . .     . .   . .   . .   . .   . .


Guitar 1:
D#||---------------------------------------------------------------------|
A#||---------------------------------------------------------------------|
F#||----------10-7-0-5-7-0-3-5-0-2-3-2----------10-7-0-5-7-0-3-5-0-2-3~--| x2
C#||--0-7-8-0---------------------------0-7-8-0--------------------------|
G#||---------------------------------------------------------------------|
C#||---------------------------------------------------------------------|


Guitar 2:
D#||------------------------------------------------------------------|
A#||------------------------------------------------------------------|
F#||------------------------------------------------------------------| x2
C#||-1-1-1-1-1-1-1-1-1-1-1-1-1-1-1-1-5-5-5-5-5-5-5-5-8-8-8-8-7-7-7-7--|
G#||-1-1-1-1-1-1-1-1-1-1-1-1-1-1-1-1-5-5-5-5-5-5-5-5-8-8-8-8-7-7-7-7--|
C#||-1-1-1-1-1-1-1-1-1-1-1-1-1-1-1-1-5-5-5-5-5-5-5-5-8-8-8-8-7-7-7-7--|
     . . . . . . . . . . . . . . . . . . . . . . . . . . . . . . . .




Pre-Chorus
Guitar 1/2:
D#||---------------------------|
A#||---------------------------|
F#||---------------------------|
C#||-1-------------------------|
G#||-1-----555---111-----------|
C#||-1--------333----11-11-1---|



Chorus
Guiatr 1:
D#||----------------------------------------------------------------------|
A#||----------------------------------------------------------------------|
F#||----------------------------------------------------------------------| X2
C#||-555555555555555111111111111111333333333333333333---------------------|
G#||-555555555555555111111111111111333333333333333333--555---111----------|
C#||-555555555555555111111111111111333333333333333333-----333----11-11-1--|


Guitar 2:
D#||----------------------------------------------------------------------|
A#||----------------------------------------------------------------------|
F#||-------------10----------------10---7---------------------------------|
C#||---8--10--8------10----7---8-----------8--10--8-----------------------|
G#||---------------------------------------------------555---111----------|
C#||------------------------------------------------------333----11-11-1--|



Verse
Guitar 1:
D#||-------|--0---0--0---0---|
A#||---6---|----6------6-----|
F#||---x---|-----------------| x3
C#||---7---|-----------------|
G#||---5---|-----------------|
C#||-------|-----------------|


Guitar 2:
D#||-------|--12--------|-------|--0---0--0---0--|-------|--5-------0----0--|
A#||---6---|--------10--|---6---|----6------6----|---6---|-----8--6---6-----|
F#||---x---|------------|---x---|----------------|---x---|------------------|
C#||---7---|------------|---7---|----------------|---7---|------------------|
G#||---5---|------------|---5---|----------------|---5---|------------------|
C#||-------|------------|-------|----------------|-------|------------------|



Pre-Chorus
Guitar 1/2:
D#||----------------------------------------------------------------------------|
A#||----------------------------------------------------------------------------|
F#||----------------------------------------------------------------------------|
C#||----------------------------------------------------------------------------|
G#||-5-8-5-8-5-8-5-8-5-8-5-8-5-8-5-8--7-10-7-10-7-10-7-10--8-12-8-12-8-12-8-12--|
C#||----------------------------------------------------------------------------|
     . . . . . . . . . . . . . . . .  . .  . .  . .  . .   . .  . .  . .  . .



Chorus
Guitar 1:
D#||----------------------------------------------------------------------|
A#||----------------------------------------------------------------------|
F#||----------------------------------------------------------------------| X2
C#||-555555555555555111111111111111333333333333333333---------------------|
G#||-555555555555555111111111111111333333333333333333--555---111----------|
C#||-555555555555555111111111111111333333333333333333-----333----11-11-1--|


Guitar 2:
D#||----------------------------------------------------------------------|
A#||----------------------------------------------------------------------|
F#||-------------10----------------10---7---------------------------------|
C#||---8--10--8------10----7---8-----------8--10--8-----------------------|
G#||---------------------------------------------------555---111----------|
C#||------------------------------------------------------333----11-11-1--|



Bridge
Guitar 1:
D#||----------------------------------------------------------------|
A#||----------------------------------------------------------------|
F#||----------------------------------------------------------------|
C#||--------------------4-4-4-4-4-8-8-8-8-8-8-8-8-4-4-4-4-4-4-4-4---|
G#||--5-5-5-5-5-5-5-5-5-5-5-5-5-5-----------------------------------|
C#||----------------------------------------------------------------|
      . . . . . . . . . . . . . . . . . . . . . . . . . . . . . . 


D#||--------------------------------------------------------|
A#||--------------------------------------------------------|
F#||--------------------------------------------------------|
C#||--------------------4-4-4-4-4-8-8-8-8-8-8-8-8-7-7-7-7---|
G#||--5-5-5-5-5-5-5-5-5-5-5-5-5-5---------------------------|
C#||--------------------------------------------------------|
      . . . . . . . . . . . . . . . . . . . . . . . . . .


Guitar 2:
D#||-------------------------------------------|
A#||-------------------------------------------|
F#||-------------------------------------------|
C#||--0---0----00---00---0---0----11---1~111---|
G#||--0---0----00---00---0---0----11---1~111---|
C#||--0---0----00---00---0---0----11---1~111---|


D#||---------------------------------------|
A#||---------------------------------------|
F#||---------------------------------------|
C#||--0---0----00---00---0---0----11---1---|
G#||--0---0----00---00---0---0----11---1---|
C#||--0---0----00---00---0---0----11---1---|


Guitar 1/2:
D#||----------|
A#||----(5)---|
F#||----------| x2
C#||--0-------|
G#||--0-------|
C#||--0-------|



Breakdown
Guitar 1/2:
D#||---------------------------------------------------------------|
A#||---------------------------------------------------------------|
F#||---------------------------------------------------------------| X3
C#||--------------------------------------------------------11111--|
G#||--5------------------------------5----------------------11111--|
C#||----3-0---1-0-0-6--0--0-1p0-1h3----3-0---1-0-0-6--0--0--11111--|


D#||----------------------------------------------|
A#||----------------------------------------------|
F#||----------------------------------------------|
C#||-33333--5~----1~----3~----11111111111111111---|
G#||-33333--5~----1~----3~----11111111111111111---|
C#||-33333--5~----1~----3~----11111111111111111---|
                              ..........


Chorus
Guitar 1:
D#||----------------------------------------------------------------------|
A#||----------------------------------------------------------------------|
F#||----------------------------------------------------------------------| X2
C#||-555555555555555111111111111111333333333333333333---------------------|
G#||-555555555555555111111111111111333333333333333333--555---111----------|
C#||-555555555555555111111111111111333333333333333333-----333----11-11-1--|


Guitar 2:
D#||----------------------------------------------------------------------|
A#||----------------------------------------------------------------------|
F#||-------------10----------------10---7---------------------------------|
C#||---8--10--8------10----7---8-----------8--10--8-----------------------|
G#||---------------------------------------------------555---111----------|
C#||------------------------------------------------------333----11-11-1--|


Guitar 1/2:
D#||------|
A#||------|
F#||------|
C#||--00--|
G#||--00--|
C#||--00--|



Outro
Guitar 1/2:
D#||--------------------------------------|
A#||--------------------------------------|
F#||--------------------------------------|
C#||--0----0--00----1p0--1p0--00----000---|
G#||--0----0--00----1p0--1p0--00----000---|
C#||--0----0--00----1p0--1p0--00----000---|





Tablature Legend
----------------
 h   - hammer-on
 p   - pull-off
 b   - bend
 r   - release bend
 *   - pinch harmonic
 x   - mute note
 .   - palm mute
 /   - slide down
 \   - slide up
Tap to rate this tab
 
# A B C D E F G H I J K L M N O P Q R S T U V W X Y Z