Song name
# A B C D E F G H I J K L M N O P Q R S T U V W X Y Z

Before Their Eyes - Start With Today chords

Highlighted       Show chord diagrams
-------------------------------------------------------------------------------
	 Start With Today Feat. Kristen Williams (Acoustic)  - Before Their Eyes
-------------------------------------------------------------------------------
Tabbed by: Éric Blanc
Email: watch_me_bleeding@hotmail.com

Tuning: Standard



|ŻŻŻŻŻŻŻŻŻŻŻŻŻŻŻŻŻŻŻŻŻŻŻŻŻŻŻŻŻŻŻŻŻŻŻŻŻŻŻŻ|
|	    --RHYTHM GUITAR--		 |
|________________________________________|

INTRO X2
VERSE X2
PRE-CHORUS
CHORUS X2
VERSE X2
PRE-CHORUS
CHORUS X2
BRIDGE X2
CHORUS X4

/-------------- INTRO (X2) --------------\

e|3---3---3---3---3---3---3---3----------|
B|3---3---3---3---3---3---3---3----------|
G|4---4---4---4---4---4---4---4----------|
D|5---5---5---5---5---5---5---5----------|
A|5---5---5---5---5---5---5---5----------|
E|3---3---3---3---3---3---3---3----------|

e|2---2---2---2---2---2---2---2----------|
B|3---3---3---3---3---3---3---3----------|
G|4---4---4---4---4---4---4---4----------|
D|4---4---4---4---4---4---4---4----------|
A|2---2---2---2---2---2---2---2----------|
E|---------------------------------------|

e|5---5---5---5---5---5---5---5----------|
B|5---5---5---5---5---5---5---5----------|
G|6---6---6---6---6---6---6---6----------|
D|7---7---7---7---7---7---7---7----------|
A|7---7---7---7---7---7---7---7----------|
E|5---5---5---5---5---5---5---5----------|


e|5---5---5---5---5---5---5---5----------|
B|5---5---5---5---5---5---5---5----------|
G|6---6---6---6---6---6---6---6----------|
D|7---7---7---7---7---7---7---7----------|
A|7---7---7---7---7---7---7---7----------|
E|5---5---5---5---5---5---5---5----------|

/-------------- VERSE (X2) --------------\

e|3--------------------------------------|
B|3--------------------------------------|
G|4--------------------------------------|
D|5--------------------------------------|
A|5--------------------------------------|
E|3--------------------------------------|

e|2--------------------------------------|
B|3--------------------------------------|
G|4--------------------------------------|
D|4--------------------------------------|
A|5--------------------------------------|
E|---------------------------------------|

/------------- PRE-CHORUS ---------------\

e|5---5---5---5---5---5---5---5----------|
B|5---5---5---5---5---5---5---5----------|
G|6---6---6---6---6---6---6---6----------|
D|7---7---7---7---7---7---7---7----------|
A|7---7---7---7---7---7---7---7----------|
E|5---5---5---5---5---5---5---5----------|

e|2---2---2---2---2----------------------|
B|2---2---2---2---2----------------------|
G|2---2---2---2---2----------------------|
D|4---4---4---4---4----------------------|
A|4---4---4---4---4----------------------|
E|2---2---2---2---2----------------------|

/-------------- CHORUS (X2) -------------\

e|3---3---3---3---3---3---3---3----------|
B|3---3---3---3---3---3---3---3----------|
G|4---4---4---4---4---4---4---4----------|
D|5---5---5---5---5---5---5---5----------|
A|5---5---5---5---5---5---5---5----------|
E|3---3---3---3---3---3---3---3----------|

e|2---2---2---2---2---2---2---2----------|
B|3---3---3---3---3---3---3---3----------|
G|4---4---4---4---4---4---4---4----------|
D|4---4---4---4---4---4---4---4----------|
A|2---2---2---2---2---2---2---2----------|
E|---------------------------------------|

e|5---5---5---5---5---5---5---5----------|
B|5---5---5---5---5---5---5---5----------|
G|6---6---6---6---6---6---6---6----------|
D|7---7---7---7---7---7---7---7----------|
A|7---7---7---7---7---7---7---7----------|
E|5---5---5---5---5---5---5---5----------|


e|5---5---5---5---5---5---5---5----------|
B|5---5---5---5---5---5---5---5----------|
G|6---6---6---6---6---6---6---6----------|
D|7---7---7---7---7---7---7---7----------|
A|7---7---7---7---7---7---7---7----------|
E|5---5---5---5---5---5---5---5----------|


/------------- BRIDGE (X2) --------------\

e|3---3---3---3---3---3---3---3----------|
B|3---3---3---3---3---3---3---3----------|
G|4---4---4---4---4---4---4---4----------|
D|5---5---5---5---5---5---5---5----------|
A|5---5---5---5---5---5---5---5----------|
E|3---3---3---3---3---3---3---3----------|

e|5---5---5---5---5---5---5---5----------|
B|5---5---5---5---5---5---5---5----------|
G|6---6---6---6---6---6---6---6----------|
D|7---7---7---7---7---7---7---7----------|
A|7---7---7---7---7---7---7---7----------|
E|5---5---5---5---5---5---5---5----------|

e|2---2---2---2---2---2---2---2----------|
B|3---3---3---3---3---3---3---3----------|
G|4---4---4---4---4---4---4---4----------|
D|4---4---4---4---4---4---4---4----------|
A|2---2---2---2---2---2---2---2----------|
E|---------------------------------------|

e|2---2---2---2---2---2---2---2----------|
B|3---3---3---3---3---3---3---3----------|
G|4---4---4---4---4---4---4---4----------|
D|4---4---4---4---4---4---4---4----------|
A|2---2---2---2---2---2---2---2----------|
E|---------------------------------------|


************************************

| /   slide up
| \   slide down
| h   hammer-on
| p   pull-off
| ~   vibrato
| +   harmonic
| x   Mute note
| b   Bend
| pb  Pre-bend
| br  Bend release
| pbr Pre-bend release
| brb Bend release bend

************************************
Tap to rate this tab
# A B C D E F G H I J K L M N O P Q R S T U V W X Y Z