Song name
# A B C D E F G H I J K L M N O P Q R S T U V W X Y Z

Before Their Eyes - You Talk A Good Game tab

-------------------------------------------------------------------------------
			     You Talk A Good Game - Before Their Eyes
-------------------------------------------------------------------------------
Tabbed by:Russell Monroe
Email:mudbuttmonroe@yahoo.com

Tuning: could be something else...
0:00-0:03
e|------------------------------|
B|---14-------------------------|
G|-----15-14-15-17-15-14-15-14--|
D|------------------------------|
A|------------------------------|
D|------------------------------|
0:03-0:05
e|-----------------------------|
B|-----------------------------|
G|----15-14-15-17-15-14-15-14--|
D|-----------------------------|
A|-----------------------------|
D|-----------------------------|
0:05-0:08
e|-------------------------------|
B|----14-------------------------|
G|------15-14-15-17-15-14-15-14--|
D|-------------------------------|
A|-------------------------------|
D|-------------------------------|
0:08-0:10
e|--------------------------------------------------------------------------------------|
B|--------------------------------------------------------------------------------------|
G|----15-14-15-17\----------------------------------------------------------------------|
D|--------------------------------------------------------------------------------------|
A|--------------------------------------------------------------------------------------|
D|--------------------------------------------------------------------------------------|

| /  slide up
| \  slide down
| h  hammer-on
| p  pull-off
| ~  vibrato
| +  harmonic
| x  Mute note
===============================================================================
Tap to rate this tab
# A B C D E F G H I J K L M N O P Q R S T U V W X Y Z