Song name
# A B C D E F G H I J K L M N O P Q R S T U V W X Y Z

Before Their Eyes - City In A Snow Globe tab

Before Their Eyes
"City In A Snow Globe"
Before Their Eyes (2007)

I give credit to mephislespaul for getting most of the tab, but ive changed some things, 
i think it sounds a lot closer. Hope you enjoy.

some things to know:
-above the x's i put what fret to mute over
-* are pinch harmonics
-h# are natural harmonics i guess. play on top of string with your finger on string 
and kinda pull your finger away when you hit it.
-p are pull offs
-h hammer ons
-b are bends
-. are palm mutes
-/ slide up
-\ slide down

Tuning Drop d half step down Db Ab Db Gb Bb eb

Play these two, two times.
eb:------8---------8---------8--8--8--8-----:
Bb:----10-10-10--10-10-10--10-10-10-10-10---:
Gb:--10--------10--------10--------------10-:
Db:-0---------------------------------------:
Ab:-----------------------------------------:
Db:-----------------------------------------:

eb:------0---------0---------0--0--0--0-----:
Bb:----10-10-10--10-10-10--10-10-10-10-10---:
Gb:--10--------10--------10--------------10-:
Db:-8---------------------------------------:
Ab:-----------------------------------------:
Db:-----------------------------------------:

Then play these two, two times.
eb:--------8-----------8-----------8--8--8--8-----:
Bb:----10---10-10--10---10-10--10---10-10-10-10---:
Gb:--10--10------10--10------10--10------------10-:
Db:-0---------------------------------------------:
Ab:-----------------------------------------------:
Db:-----------------------------------------------:

eb:--------0-----------0-----------0--0--0--0-----:
Bb:----10---10-10--10---10-10--10---10-10-10-10---:
Gb:--10--10------10--10------10--10------------10-:
Db:-8---------------------------------------------:
Ab:-----------------------------------------------:
Db:-----------------------------------------------:

eb:-----------------:
Bb:-----------------:
Gb:-----------------:
Db:-----------------:
Ab:-000-000-000-000-:
Db:-000-000-000-000-:
    ... ... ... ...

eb:----------------------------------:
Bb:----------------------------------:
Gb:-----------------------------5----:
Db:-----------------------------x-0~-:
Ab:-------------------0-0-0-0-0-4-0~-:
Db:-3p0-(x7)-5p0-(x4)-0-0-0-0-0---0~-:
                      . . . . .

eb:-----------------------------:
Bb:-----------------------------:
Gb:-----------------------------:
Db:-3/88------------------------:
Ab:-3/88------------------------:
Db:-3/88--0h8p7p0-7p5p0-3h5p3p0-:

eb:--------------------------------:
Bb:--------------------------------:
Gb:---(play these x's on 4th fret)-:
Db:-3-x-x-xx3/88-------------------:
Ab:-3-x-x-xx3/88-------------------:
Db:-3-x-x-xx3/88-0h8p0-7p0-00-5*---:
                           ..

eb:-------------------------------------------:
Bb:-------------------------------------------:
Gb:--(play on 3rd)(play on 8th)---------------:
Db:-3-xxxxxxx-3/88-xxxx-----------------------:
Ab:-3-xxxxxxx-3/88-xxxx-----------------------:
Db:-3-xxxxxxx-3/88-xxxx-0h8p7p0-7p5p0-3h5p3p0-:

eb:-----------------------------------------:
Bb:-----------------------------------------:
Gb:--(3rd)-(5th)------(8th)-----------------:
Db:-3-xxxx-xxxxxx-3/88-xxxx-----------------:
Ab:-3-xxxx-xxxxxx-3/88-xxxx-----------------:
Db:-3-xxxx-xxxxxx-3/88-xxxx-0h8p0-7p0-00-5*-:
                                      ..
play this twice
eb:------------------------------------------:
Bb:------------------------------------------:
Gb:----------------101010------121212/1414\\-:
Db:-0----------888--x-x-x-1010--x-x-x/-x-x\\-:
Ab:-0----------888--8-8-8-1010-101010/1212\\-:
Db:-0-3p0-(x8)-888--------1010---------------:

play this twice
eb:--------------------------------:
Bb:--------------------------------:
Gb:--------------------------------:
Db:-0-000000-3/88-888888-----------:
Ab:-0-000000-3/88-888888-----------:
Db:-0-000000-3/88-888888-0h8p0h10b-:
      ......      ......

eb:-------------:
Bb:-------------:
Gb:-------------:
Db:-(mute this)-:
Ab:-------------:
Db:-3p0-(x8)----:

play twice
eb:----------------------------------------:
Bb:----------------------------------------:
Gb:--------------101010------121212/1414\\-:
Db:----------888--x-x-x-1010--x-x-x/-x-x\\-:
Ab:----------888--8-8-8-1010-101010/1212\\-:
Db:-3p0-(x8)-888--------1010---------------:

eb:------------------------------:
Bb:------------------------------:
Gb:------------------------------:
Db:-00-00-00-00--00-00-00-00-----:
Ab:-00-00-00-00--00-00-00-00-----:
Db:-00-00-00-00--00-00-00-00-5*b-:
    .. .. .. ..  .. .. .. ..

play twice
eb:--------------------------------------:
Bb:--------------------------------------:
Gb:--------------------------------------:
Db:-000-000-000-000--000-000-000-000-----:
Ab:-000-000-000-000--000-000-000-000-----:
Db:-000-000-000-000--000-000-000-000-5*b-:
    ... ... ... ...  ... ... ... ...

eb:-------------------------------:
Bb:---------12--------12-12-12-12-:
Gb:---------15--------15-15-15-15-:
Db:-000-000---000-000-------------:
Ab:-000-000---000-000-------------:
Db:-000-000---000-000-------------:
    ... ...   ... ...

eb:-----------------------------------------------------------:
Bb:---------12--------12-12-12--12-----12---------12-12-12-12-:
Gb:---------15--------15-15-15--15-----15---------15-15-15-15-:
Db:-000-000---000-000--------------000----000-000-------------:
Ab:-000-000---000-000--------------000----000-000-------------:
Db:-000-000---000-000--------------000----000-000-------------:
    ... ...   ... ...              ...


eb:-------------------------------:
Bb:---------12--------12-12-12-12-:
Gb:---------15--------15-15-15-15-:
Db:-000-000---000-000-------------:
Ab:-000-000---000-000-------------:
Db:-000-000---000-000-------------:
    ... ...   ... ...

eb:---------------------------------------:
Bb:---------------------------------------:
Gb:-------------101010------121212/1414\\-:
Db:-12\\\--3/88--x-x-x-1010--x-x-x/-x-x\\-:
Ab:-12\\\--3/88--8-8-8-1010-101010/1212\\-:
Db:-12\\\--3/88--------1010---------------:

eb:----------------------------------------:
Bb:----------------------------------------:
Gb:--------------101010------121212/1414\\-:
Db:----------888--x-x-x-1010--x-x-x/-x-x\\-:
Ab:----------888--8-8-8-1010-101010/1212\\-:
Db:-3p0-(x7)-888--------1010---------------:

eb:----------------------------------------------------:
Bb:----------------------------------------------------:
Gb:----------------------------------------------------:
Db:-00-00-000-000--00-00-000-00-----00-00-000-00-0-----:
Ab:-00-00-000-000--00-00-000-00-----00-00-000-00-0-7h#-:
Db:-00-00-000-000--00-00-000-00-3h#-00-00-000-00-0-----:

play twice
eb:-------------------------------:
Bb:-------------------------------:
Gb:-------------------------------:
Db:-00-00-000-00------------------:
Ab:-00-00-000-00------------------:
Db:-00-00-000-00-0h8h10p0-0h7h8p0-:

eb:-------------------------------------:
Bb:-------------------------------------:
Gb:-------------------------------------:
Db:-1\\\-----00-00-00-00-00-00----------:
Ab:-1\\\-5h#-00-00-00-00-00-00----------:
Db:-1\\\-----00-00-00-00-00-00-3p0(x5)--:

eb:---------------------------------------------------:
Bb:--------------------------------5-5-5--------------:
Gb:--------------------------------8-8-8--------------:
Db:-00-00-000-00--------------------------00-00-00-00-:
Ab:-00-00-000-00--------------------------00-00-00-00-:
Db:-00-00-000-00-0h8h10p0-0h7h8p0-0-------00-00-00-00-:
                                  .
Thank You.
You can email me at irbyl@cg61.navy.mil for questions/concerns.
Other tabs ive done our some Burden Of A Day, Before Their Eyes, and Novella from St. 
if you've heard of them. Its under Misc Unsigned Bands then Novella-We Are The Undead.
Tap to rate this tab
 
# A B C D E F G H I J K L M N O P Q R S T U V W X Y Z