Song name
# A B C D E F G H I J K L M N O P Q R S T U V W X Y Z

Before Today - Failure Is Relative tab

-BEFORE TODAY   "FAILURE IS RELATIVE"(intro)
-by SomeBandQuote

Vic-
E-------------------------------------|
B-------------------------------------|
G-------------------------------------|
D--------9-9--5-5---------------------|
A---7-7-------------7-7---------------|
E-------------------------------------|

E--------------------------------------|
B--------------------------------------|
G--------------------------------------|
D--------9-9--5-5----------------------|
A---7-7-------------7-7----------------|
E--------------------------------------|

E----------------------------------------------------------|
B----------------------------------------------------------|
G----------------------------------------------------------|
D--------9-9---7-7--9-9--10-10--9-9--7-7--5-5--------------|
A---7-7----------------------------------------------------|
E----------------------------------------------------------|

Joe-

---------------------------------------|
---------------------------------------|
------------------5--------------------|
--2---------------5--------------------| 2 times i think
--2--let ring-----3---palm mute--------|
--0------------------------------------|
Tap to rate this tab
# A B C D E F G H I J K L M N O P Q R S T U V W X Y Z