Song name
# A B C D E F G H I J K L M N O P Q R S T U V W X Y Z

Before Today - Peirce The Veil tab

-BEFORE TODAY   "PEIRCE THE VEIL"(intro)
-by YUVIENATOR


E-------------------------------------|
B-------------------------------------|
G--5---10---7-----5-----5-------------|
D--------------------5-----7---3----7-|
A-------------------------------------|
E-------------------------------------|


E-------------------------------------|
B-------------------------------------|
G------10---7-----5-----5-------------|
D--5-----------------5-----7---3----7-|
A-------------------------------------|
E-------------------------------------|
Tap to rate this tab
 
# A B C D E F G H I J K L M N O P Q R S T U V W X Y Z