Song name
# A B C D E F G H I J K L M N O P Q R S T U V W X Y Z

Before Today - Piercing The Veil tab

Help us improve GuitareTab! Take a short survey!
Submitted by: Sometabber
Standard Tuning

e|------------------------------------------------------|
B|--8-6-----------------------6-------------------------|
G|------7---5---5---------------7--5---5----------------|
D|----------------7---7------5-----------7---7----------|
A|------------8-----8----------------8-----8------------|
E|------------------------------------------------------|

e|--------------------------------|
B|------6-------------------------|
G|--------7--5---5----------------|   x3
D|-----5-----------7---7----------|
A|-------------8-----8------------|
E|--------------------------------|
Related for Piercing The Veil tab