Song name
# A B C D E F G H I J K L M N O P Q R S T U V W X Y Z

Before You Exit - What Makes You Beautiful tab

Hey! im xton and this is my first tab.! Hope you like it :P
this Tab is 97% acurate XD.

if you want to corect me email me @ brixtonprado@yahoo.com :P
like us on fb www.facebook.com/theheroinemusic

============================================================
             What makes you beautiful - Before you exit
============================================================
Gt1
Intro: 
e|-------------------------------------------------------|
B|-------------------------------------------------------|
G|-6-----------------6-----------------------------------|
D|-6--6/7--8/88888---6--6/7--8/88888---------------------|
A|-4--6/7--8/88888---4--6/7--8/88888---------------------|
E|----4/5--6/77777------4/5--6/77777---------------------|

Verse 1 :
e|-------------------------------------------------------|
B|-------------------------------------------------------|
G|-6-----------------6-----------------------------------|
D|-6--6/7--8/88888---6--6/7--8/88888---------------------|
A|-4--6/7--8/88888---4--6/7--8/88888---------------------|
E|----4/5--6/77777------4/5--6/77777---------------------|

e|-------------------------------------------------------|
B|-------------------------------------------------------|
G|-6-----------------6-----------------------------------|
D|-6--6/7--8/88888---6--6/7--8/88888---------------------|
A|-4--6/7--8/88888---4--6/7--8/88888---------------------|
E|----4/5--6/77777------4/5--6/77777---------------------|

Everyone else in the room can see it
GT1
e|-------------------------------------------------------|
B|-------------------------------------------------------|
G|-6-------------------6---------------------------------|
D|-6--6/7--10/88888----6--6/77--8~-----------------------|
A|-4--6/7--10/88888----4--6/77--8~-----------------------|
E|----4/5---9/77777-------4/55--7~-----------------------|

GT2
e|--------------------------------------------|
B|---6-6-6-6-6-6------------------------------|
G|---4-4-4-4-4-4------------------------------|
D|--------------------------------------------|
A|--------------------------------------------|
E|--------------------------------------------|


Chorus:

GT1:
Baby you light up my world like nobody else
e|------------------------------------------------------------------------|
B|------------------------------------------------------------------------|
G|-4444-4444-4444----4444-4444-4444---------------------------------------|
D|-2222-2222-4444----2222-2222-4444---------------------------------------|
A|-2222-0000-2222----2222-0000-2222---------------------------------------|
E|------------------------------------------------------------------------|

e|--------------------------------------------------------------|
B|--------------------------------------------------------------|
G|--4444-4444-666\4444--4444-4444-4444--------------------------|
D|--2222-2222-666\4444--2222-2222-4444--------------------------|
A|--2222-0000-444\2222--2222-0000-2222--------------------------|
E|--------------------------------------------------------------|

GT2 : Continious Playing
e|--------------------------------|
B|--------------------------------|
G|--11----------------------------|
D|--9-----------------------------|
A|--7-----------------------------|
E|--------------------------------|

If only you saw what I can see
GT1
e|------------------------------------------------------------------------|
B|------------------------------------------------------------------------|
G|-4444-4444-4444----4444-4444-4444---------------------------------------|
D|-2222-2222-4444----2222-2222-4444---------------------------------------|
A|-2222-0000-2222----2222-0000-2222---------------------------------------|
E|------------------------------------------------------------------------|

e|--------------------------------------------------------------|
B|--------------------------------------------------------------|
G|--4444-4444-666\4444--4444-4444-4444-4444-4444-4444-----------|
D|--2222-2222-666\4444--2222-2222-4444-2222-2222-4444-----------|
A|--2222-0000-444\2222--2222-0000-2222-2222-0000-2222-----------|
E|--------------------------------------------------------------|

GT2 : Continious Playing
e|--------------------------------|
B|--------------------------------|
G|--12----------------------------|
D|--9-----------------------------|
A|--------------------------------|
E|--------------------------------|

e|-------------------|
B|-------------------|
G|-6-----------------|
D|-6--6/7--10/88888--|
A|-4--6/7--10/88888--|
E|----4/5---9/77777--|

Repeat Verse 1:
Repeat Chorus:



Bridge:
GT1
e|-------------------|
B|-------------------|
G|-6-----------------|
D|-6--6/7--10/88888--|
A|-4--6/7--10/88888--|
E|----4/5---9/77777--|

GT2 : Continious Playing
e|--------------------------------|
B|--------------------------------|
G|--12----------------------------|
D|--9-----------------------------|
A|--------------------------------|
E|--------------------------------|


Chorus:

e|-0~-0~-0~--|
B|-0~-0~-0~--|
G|-0~-4~-4~--|
D|-2~-2~-4~--|
A|-2~-0~-2~--|
E|-0~--------|


e|-0~-0~----------|
B|-0~-0~----------|
G|-0~-4~-666-4444-|
D|-2~-2~-666-4444-|
A|-2~-0~-444-2222-|
E|-0~-------------|

chorus:

Baby you light up my world like nobody else
The way that you flip your hair gets me overwhelmed
But when you smile at the ground it ain't hard to tell

e|--------------------------------------------------------------|
B|--------------------------------------------------------------|
G|--4444-4444-666\4444--4444-4444-4444--------------------------|
D|--2222-2222-666\4444--2222-2222-4444--------------------------|
A|--2222-0000-444\2222--2222-0000-2222--------------------------|
E|--------------------------------------------------------------|

GT2 : Continious Playing
e|--------------------------------|
B|--------------------------------|
G|--11----------------------------|
D|--9-----------------------------|
A|--7-----------------------------|
E|--------------------------------|

If only you saw what I can see
GT1
e|------------------------------------------------------------------------|
B|------------------------------------------------------------------------|
G|-4444-4444-4444----4444-4444-4444---------------------------------------|
D|-2222-2222-4444----2222-2222-4444---------------------------------------|
A|-2222-0000-2222----2222-0000-2222---------------------------------------|
E|------------------------------------------------------------------------|

e|--------------------------------------------------------------|
B|--------------------------------------------------------------|
G|--4444-4444-666\4444--4444-4444-4444-4444-4444-4444-----------|
D|--2222-2222-666\4444--2222-2222-4444-2222-2222-4444-----------|
A|--2222-0000-444\2222--2222-0000-2222-2222-0000-2222-----------|
E|--------------------------------------------------------------|

GT2 : Continious Playing
e|--------------------------------|
B|--------------------------------|
G|--12----------------------------|
D|--9-----------------------------|
A|--------------------------------|
E|--------------------------------|

e|-------------------|
B|-------------------|
G|-6-----------------|
D|-6--6/7--10/88888--|
A|-4--6/7--10/88888--|
E|----4/5---9/77777--|
Tap to rate this tab
# A B C D E F G H I J K L M N O P Q R S T U V W X Y Z