Begin - Jam Balls tab

-----------------------------------------------------------------------------
			     Jam Balls - Begin

Hope you enjoy this is an AWESOME song on the popular whirling dervish longboarding 
It's a tad bit different from the real song but i think it sounds just as good. I HAVEN'T 
HOW MANY TIMES THESE ARE REPEATED SO LISTEN TO THE SONG.
-----------------------------------------------------------------------------

e|---------------------------------------------------------------------------|
B|---------------------------------------------------------------------------|
G|---------------------------------------------------------------------------|
D|----4--4--4--4--7--7--7--7--6--6--6--6--6--6--6--6-------------------------|
A|--5--5--5--5--9--9--9--9--7--7--7--7--7--7--7--7---------------------------|
E|---------------------------------------------------------------------------|

e|---------------------------------------------------------------------------|
B|---------------------------------------------------------------------------|
G|---------------------------------------------------------------------------|
D|--4-4-4-4-4-4-7-7-7-7-7-7-7-7-7-7-7-7-7-7-7-7------------------------------|
A|--5-5-5-5-5-5-9-9-9-9-9-9-6-6-6-6-6-6-6-6-6-6------------------------------|
E|---------------------------------------------------------------------------|

e|---------------------------------------------------------------------------|
B|-------------------------------------9-9-9-9-9-9---------------------------|
G|-------4----6----7-------9-9-9-9-9-9-7-7-7-7-7-7---------------------------|
D|--5----------------------7-7-7-7-7-7---------------------------------------|
A|---------------------------------------------------------------------------|
E|---------------------------------------------------------------------------|

e|--5-4-5-4-9-7-9-7-4-2-4-2-4-2-4-2------------------------------------------|
B|---------------------------------------------------------------------------|
G|---------------------------------------------------------------------------|
D|---------------------------------------------------------------------------|
A|---------------------------------------------------------------------------|
E|---------------------------------------------------------------------------|

e|--5-5-5-5-5-5-5-9-9-9-9-9-9-4-4-4-4-4-4-4-4-4-4-4-4------------------------|
B|---------------------------------------------------------------------------|
G|---------------------------------------------------------------------------|
D|---------------------------------------------------------------------------|
A|---------------------------------------------------------------------------|
E|---------------------------------------------------------------------------|

e|--5-5-5-5-5-5-5-9-9-9-9-9-9-12-12-12-12-12-12-12-12-12-12-12-12------------|
B|---------------------------------------------------------------------------|
G|---------------------------------------------------------------------------|
D|---------------------------------------------------------------------------|
A|---------------------------------------------------------------------------|
E|---------------------------------------------------------------------------|

e|---------------------------------------------------------------------------|
B|--10--9--7----7--9--10--9--7---12-12-12-12-12-12-10-10-10-9-9--------------|
G|------------9--------------------------------------------------------------|
D|---------------------------------------------------------------------------|
A|---------------------------------------------------------------------------|
E|---------------------------------------------------------------------------|
Tap to rate this tab
 
# A B C D E F G H I J K L M N O P Q R S T U V W X Y Z