Song name
# A B C D E F G H I J K L M N O P Q R S T U V W X Y Z

Behemoth - Pure Evil And Hate tab

Pure Evil And Hate Solo
Behemoth

Tuned to E Standard.

|-12h13p12-15p12-13p12-15p12h13p12h13p12-13p12h15-|
|-------------------------------------------------|
|-------------------------------------------------|
|-------------------------------------------------|
|-------------------------------------------------|
|-------------------------------------------------|

|-12h13-12h15-12h13-12h15-12h13p12-15p12-13p12h15-|
|-------------------------------------------------|
|-------------------------------------------------|
|-------------------------------------------------|
|-------------------------------------------------|
|-------------------------------------------------|

||-15b(17)---------------15b(17)-15b(17)||-15b(17)-|
||o------------------------------------o||---------|
||--------------------------------------||---------|
||--------------------------------------||---------|
||o------------------------------------o||---------|
||--------------------------------------||---------|
                                       x2

|-12-15-13p10---------------------------------------------------|
|-------------13p12-13p12-13b(15)-----13b(15)-------13b(15)-----|
|---------------------------------------------------------------|
|---------------------------------------------------------------|
|---------------------------------------------------------------|
|---------------------------------------------------------------|

|-----------------------------------------|
|-10p8-10p8-7h8-10-10-10b12---------------|
|-----------------------------------------|
|-----------------------------------------|
|-----------------------------------------|
|-----------------------------------------|

|-------------------------------------------------|---------------------------|
|-13p12-15p12-13p12-15p12-13p12-15p12/15b17-------|-15b17---------------------|
|-------------------------------------------------|---------------------------|
|-------------------------------------------------|---------------------------|
|-------------------------------------------------|---------------------------|
|-------------------------------------------------|---------------------------|

Thanks for looking.
Tap to rate this tab
 
# A B C D E F G H I J K L M N O P Q R S T U V W X Y Z