Guitaretab - guitar tabs
Song name
# A B C D E F G H I J K L M N O P Q R S T U V W X Y Z

Behemoth - Act Of Rebellion tab

BEHEMOTH
THE ACT OF REBELLION
                    

Tuning: D, G, C, F, A, d


   Guitars 1 & 2
 d[-------------------------------------------]
 A[-----------------------------------------]
 F[------------9-----------9-----8--4--5------]
 C[------------9-----------9-----8--4--5--5---]
 G[-----------7-----------7-----6--2--3--5--]
 C[---0-0-0-0-----0-0-0-0-----0-----------3---]

 d[-------------------------------------------|----]
 A[-----------------------------------------|----]
 F[-----------12----------12-----8--4--5------|----]
 C[-----------12----------12-----8--4--5--5---|-2--]
 G[----------10----------10-----6--2--3--5--|-2--]
 C[---0-0-0-0-----0-0-0-0-----0-----------3---|-0--]


VERSE:

   Guitars 1 & 2
 d[-------------------------------------------]
 A[-----------------------------------------]
 F[------------9-----------9-----8--4--5------]
 C[------------9-----------9-----8--4--5--5---]
 G[-----------7-----------7-----6--2--3--5--]
 C[---0-0-0-0-----0-0-0-0-----0-----------3---]

 d[-------------------------------------------|----]
 A[-----------------------------------------|----]
 F[-----------12----------12-----8--4--5------|----]
 C[-----------12----------12-----8--4--5--5---|-2--]
 G[----------10----------10-----6--2--3--5--|-2--]
 C[---0-0-0-0-----0-0-0-0-----0-----------3---|-0--]


CHORUS:

   Guitars 1 & 2
 d[-------------------------------|----------------------------------]
 A[------------------------------|---------------------------------]
 F[-----------9-8---------12-11---|---------9-8----------------------]
 C[-----------9-8---------12-11---|---------9-8----------------------]
 G[----------7-6---------10--9---|---------7-6--9-7-6-9-7-6-9-7-6--]
 C[---0-0-0-0-----0-0-0-0---------|-0-0-0-0--------------------------]
[ Tab from: http://www.guitaretab.com/b/behemoth/116607.html ]
   Guitars 1 & 2
 d[-------------------------------|----------------------------------]
 A[------------------------------|---------------------------------]
 F[-----------9-8---------12-11---|---------------------------[8]----]
 C[-----------9-8---------12-11---|----------------------------------]
 G[----------7-6---------10--9---|---------9-7-6-9-7-6-9-7-6-------]
 C[---0-0-0-0-----0-0-0-0---------|-0-0-0-0--------------------------]

   Guitars 1
 d[-------------------------|--------------------------]
 A[------------------------|-------------------------]
 F[-------------------------|--------------------------]
 C[-------------------------|--------------------------]
 G[------------------------|-------------------------]
 C[---0----1--3--5----1--3--|-0----1--3--5--7--1--3----]
  |
  |Guitar 2
 d[-------------------------|--------------------------]
 A[------------------------|-------------------------]
 F[-------------------------|--------------------------]
 C[-------------------------|--------------------------]
 G[------------------------|-------------------------]
 D[---0----1--3--5----1-[3]-|-0----1--3--5--7--1-[3]---]


   Guitar 1
 d[-----|----------------]
 A[----|---------------]
 F[-----|----------------]
 C[---3-|----------------]
 G[--3-|---------------]
 C[---1-|-1-0-1-0-1-0----]
  |
  |Guitar 2
 d[-----|----------------]
 A[----|---------------]
 F[-----|----------------]
 C[---3-|----------------]
 G[--3-|---------------]
 C[---1-|----------------]


   Guitar 1 & 2 (play this riff again and again...)
 d[---------------|---------------]
 A[--------------|--------------]
 F[---------------|---------------]
 C[---------------|---------------]
 G[--------------|--------------]
 C[---1-0-1-0-1-0-|-1-0-1-0-1-0---]


SOLO:

   Guitar 1
 d[----------------------------]
 A[--------------------------]
 F[----------------------------]
 C[----------------------------]
 G[---7----6-----5--4-----3--]
 C[------------7--------5------]
  |
  |Guitar 1
 d[----------------------------]
 A[--------------------------]
 F[----------------------------]
 C[----------------------------]
 G[--------------------------]
 C[----------------------------]


keep it metal..
Related for Act Of Rebellion tab