Song name
# A B C D E F G H I J K L M N O P Q R S T U V W X Y Z

Behemoth - Summoning Of The Ancient Ones tab

Help us improve GuitareTab! Take a short survey!
These are all the riffs from the song. They go in order of appearance.


|--------------------------------------------------------------|
|--------------------------------------------------------------|
|--------------------------------------------------------------|
|-9-9-9-9-9-9-9-10-10-10-10-10-10-9-8-8-8-8-8-8-8-9-9-9-9-9-9-8|
|-7-7-7-7-7-7-7-7--7--7--7--7--7--7-6-6-6-6-6-6-6-6-6-6-6-6-6-6|
|--------------------------------------------------------------|



|-------------------------------------|
|-------------------------------------|
|-------------------------------------|
|-9--5--7-----------------------------|
|-7--3--5--9-9-9-9-9-9-9-9-9-9-9-9-9-9|
|----------7-7-7-7-7-7-7-7-7-7-7-7-7-7|


|--------|
|--------|
|--------|
|--------|
|--9---8-|
|--7---6-| Play till next riff.


|-----------------------------------------------|
|-----------------------------------------------|
|-----------------------------------------------|
|-----------------------------------------------|
|-11-11-11-11-11-11-11-11-11-11-11-11-11-11-5-5-|
|-9--9--9--9--9--9--9--9--9--9--9--9--9--9--3-3-|


|-----------------------------------|
|-----------------------------------|
|-----------------------------------|
|-----------------------------------|
|-8-8-8-8-8-8-8-8-8-8-8-8-8-8-8-2-2-|
|-6-6-6-6-6-6-6-6-6-6-6-6-6-6-6-0-0-|
Related for Summoning Of The Ancient Ones tab