Song name
# A B C D E F G H I J K L M N O P Q R S T U V W X Y Z

Behemoth - Reign Of Shemsu-hor tab

Hey guys I listened to the track while i had my guitar tuned in drop c managed to tab 
the first guitar solo, sorry i know its not the correct tuning but i didnt feel like 
my guitar to C# standard. Enjoy! Any questions email me at curtis.costantino@verizon.net

Reign Of Shemsu-hor - Behemoth

 Solo 1 (3:19)

D---------------------------------------------------------------------------|
A--13~-------14-13-11-13-11-898--686--565----------------6---------5~-------|
F------------------------------------------565-------5h6-------5h6----------|
C-------------------------------------------------8--------8----------------|
G---------------------------------------------------------------------------|
C---------------------------------------------------------------------------|


D-------------------------/212018--------------------------------------------|
A--------------------------------212018-17h18p17---17----------171820--21-20-|
F---------6---------5~---------------------------18--1817151718--------------|
C--5h6h8-----5h6h8-----------------------------------------------------------|
G----------------------------------------------------------------------------|
C----------------------------------------------------------------------------|


D---------------------------------------------------------------------------|
A-18-20-18-17-18-17----------------------------------------------------1113-|
F-------------------18-17-15-17-17~----------------101213--------101213-----|
C------------------------------------------81011/13--------101113-----------|
G-------------------------------------81011---------------------------------|
C---------------------------------------------------------------------------|
                                                                                   
Perfect 4th (too lazy to add it in)
                         Gradually release...
D---14----------------------------------------------------------------------|
A-14-------16b(18)--(17)---13h14p13~-(13)-----------------------------------|
F---------------------------------------------------------------------------|
C---------------------------------------------------------------------------|
G---------------------------------------------------------------------------|
C---------------------------------------------------------------------------|
Tap to rate this tab
# A B C D E F G H I J K L M N O P Q R S T U V W X Y Z