Song name
# A B C D E F G H I J K L M N O P Q R S T U V W X Y Z

Behemoth - Ov Fire And The Void tab

When you see the * symbol, that means pluck that string mutiple times. Just listen 
to the song for timing. The ^ symbol means bend up

Intro Pt. 1
|-----------------------------------------------------|
|------1*---0*------------------0*--------------------|
|--------------3*------------------3*-----------------|  Play Twice
|-2----------------------2------------3*--------------|
|-2----------------------2----------------------------|
|-0----------------------0----------------------------|

Intro Pt. 2
|-----------------------------------------------------|
|-----------------------------------------------------|
|-----------------------------------------------------|  Play Twice
|-2--------2--------2--------------2~~~~--------------|
|-2--------2--------2--------------2~~~~--------------|
|-0---0*---0---0*---0---0*---1*----0~~~~--------------|

Verse Pt. 1
|----------------------------------|
|----8-8-8-8-----8-8-8-8-7-7-7-7---|
|----9-9-9-9-----9-9-9-9-8-8-8-8---|  Play 3x then...
|----9-9-9-9-----9-9-9-9-8-8-8-8---|
|----7-7-7-7-----7-7-7-7-6-6-6-6---|
|-0-----------0--------------------|

|----------------------------------|
|----8-8-8-8-----------------------|
|----9-9-9-9-----------------------|
|----9-9-9-9-----8-5-8---5-4-5-----|
|----7-7-7-7-----6-3-6---3-2-3-----|
|-0-----------0--6-3-6---3-2-3-----|

Verse Pt. 2
|-------------------------------------------------------------|
|-------------------------------------------------------------|
|-3---3----------------2*-----3---3-----------------0*--------|
|-3-5-3---5-4-5-4---4*----4*--3-5-3---5-4-5-2---2*-----2*-----|
|-1-5-1---5-4-5-4-------------1-5-1---5-4-5-2-----------------|
|---3-----3-2-3-2---------------3-----3-2-3-0-----------------|

|-------------------------------------------------------------|
|-------------------------------------------------------------|
|-3---3----------------2*------4*^------------3--------2------|  Play pt. 2
|-3-5-3---5-4-5-4---4*----4*----------------5--------4--------|    twice
|-1-5-1---5-4-5-4-------------------------5--------4----------|
|---3-----3-2-3-2-----------------------3--------2------------|

Play Verse Pt. 1 again, then...

Bridge Pt. 1
|-----------------------------------------------------|
|------1*---0*------------------0*--------------------|
|--------------3*------------------3*-----------------|
|-2----------------------2------------3*--------------|
|-2----------------------2----------------------------|
|-0----------------------0----------------------------|

|--------------------------------------------------------|
|------1*---0*-------------------------------------------|
|--------------3*----------------------------------------|  Play Twice
|-2------------------2*--1*----1*----1*--2*--4*--2*--5^--|
|-2-------------------------3*----3*---------------------|
|-0------------------------------------------------------|

Bridge Pt. 2
|---------------------------------------------------|
|---------------------------------------------------|
|--4*--3*----------3*-------------------------------|
|--------------5*------5*--4*--5*--2*--4*------2*---|
|------------------------------------------3*-------|
|---------------------------------------------------|

|---------------------------------------------------|
|---------------------------------------------------|
|--4*--3*----------3*-------------------------------|  Play 4x
|--------------5*------5*--4*--5*--2*--4*-----------|
|------------------------------------------3*---2*--|
|---------------------------------------------------|

Solo (don't know the solo yet, but this is the rhythm guitar.)
|--------------------------------------|
|--------------------8-8-8-8-----------|
|--------------------9-9-9-9-----------|  Play until the solo's over
|-2--2-2-2----2-2-2--9-9-9-9-----------|
|-2--2-2-2----2-2-2--7-7-7-7-----------|
|-0--0-0-0----0-0-0--------------------|

The Outro is just the Verse Pt. 1 played 4x.
Tap to rate this tab
# A B C D E F G H I J K L M N O P Q R S T U V W X Y Z