Song name
# A B C D E F G H I J K L M N O P Q R S T U V W X Y Z

Behemoth - Lucifer tab

Play 12 times after the chanting and symphonic intro.

C||-------------------|
G||-------------------|
Eb|-------------------|
Bb|--9-8-5~-5~--------|
F||--7-6-3~-3~-4~-4~--|
C||------------2~-2~--|

End 13th time on:

|----------|
|----------|
|----------|
|--9-8-5~--|
|--7-6-3~--|
|----------|

The Verse is the same thing abd is alos played under the lead part.
Tap to rate this tab
 
# A B C D E F G H I J K L M N O P Q R S T U V W X Y Z