Song name
# A B C D E F G H I J K L M N O P Q R S T U V W X Y Z

Behemoth - Lucifer tab

**this is transcribed from jonas3's gpro tab**
I only wrote it in correct tuning C#

Riff1 

|---------------------|
|---------------------|
|-4---4-----------8/7-|
|-4---4---3---3---8/7-|
|-2---2---3---3---6/5-|
|---------1---1-------|

riff 2 
|---0------------|---------------------|
|-----0----------|---------------------|
|-------0-------0|----------2"---------|
|-2-------2---2--|--3----3"-------3"---|
|-2---------2----|----3"-------------3"|
|-0--------------|---------------------|


bridge
|------------|------------|
|------------|------------|
|-7------6---|-4-----3----|
|-9------8---|-4-----5----|
|-9------8---|-4-----5----|
|-7------6---|-2-----3----|

" tremolo pick
/ slide
Tap to rate this tab
# A B C D E F G H I J K L M N O P Q R S T U V W X Y Z