Song name
# A B C D E F G H I J K L M N O P Q R S T U V W X Y Z

Behemoth - Slaves Shall Serve tab

ok this is on a six string. 
tuning:
1=C 2=G 3=D# 4=A# 5=F 6=A#
Legend:
/slide
*pinch harmonic(or squel)
Riff One
-------------------------|--------------------------|
-------------------------|--------------------------|
-------------------------|--------------------------|
-----7-----8-7/8-7/8-11-8|-----5-----8-5/7-3/5-6-2-5|
-----5-----6-5/6-5/6-9--6|-----7-----6-3/5-1/3-4-0-3|
-0-0---0-0---------------|-0-0---0-0----------------|

-------------------------|--------------------------|
-------------------------|--------------------------|
-------------------------|--------------------------|
-----7-----8-7/8-7/8-11-8|-----5-----8-5/7-3/5------|
-----5-----6-5/6-5/6-9--6|-----7-----6-3/5-1/3-5*---|
-0-0---0-0---------------|-0-0---0-0----------------|

-------------------------|--------------------------|
-------------------------|--------------------------|
-------------------------|--------------------------|
-----7-----8-7/8-7/8-11-8|-----5-----8-5/7-3/5-6-2-5|
-----5-----6-5/6-5/6-9--6|-----7-----6-3/5-1/3-4-0-3|
-0-0---0-0---------------|-0-0---0-0----------------|

-------------------------|--------------------------|
-------------------------|--------------------------|
-------------------------|--------------------------|
-----7-----8-7/8-7/8-11-8|-----5-----8-5/7-3/5------|
-----5-----6-5/6-5/6-9--6|-----7-----6-3/5-1/3-5*---|
-0-0---0-0---------------|-0-0---0-0----------------|
Riff Two repeat twice
----------------|
----------------|
----------------|
----------------|
-5---8---7---5--|
---0---0---0---0|

--------------------|
--------------------|
-14------------13--9|
-x-------------x---x|
-12------------11--7|
--------------------|

----------------|
----------------|
----------------|
----------------|
-5---8---7---5--|
---0---0---0---0|

--------------------|
--------------------|
-10-------------9---|
-x--------------x---|
-8--------------7---|
--------------------|
Riff one then Riff two
solo
-----------------------------------|-----------------------------------|
-----------------------------------|-----------------------------------|
-------10-11-10-11-10--------------|-------10-11-10-11-13----------14--|
-11-12----------------12-11-8-11-12|-11-12-----------------------------|
-----------------------------------|-----------------------------------|
-----------------------------------|-----------------------------------|

-------------------------------|---------------------------------------|
-------------------------------|-----------12-------15-13-12-16-15-12--|
--------10-11-10-11-14-13-11-10|--14-13-11----14-13--------------------|
--11-12------------------------|---------------------------------------|
-------------------------------|---------------------------------------|
-------------------------------|---------------------------------------|

----------13----16|----------------------------------------------------|
-17-16-14----15---|----------------------------------------------------|
------------------|-------15-16-15-16-15-------------------------------|
------------------|-16-17----------------17-16-17-16-13----------------|
------------------|----------------------------------------------------|
------------------|----------------------------------------------------|

------------------------------------|----------------------------------|
------------------------------------|----------------------------------|
-------15-16-15-16-15---------------|-------13-14-13-14-13-------------|
-16-17----------------17-16-17-16-13|-15-16----------------16-15-16-15-12|
------------------------------------|----------------------------------|
------------------------------------|----------------------------------|

-----------------------------------------------------------------------|
-----------------------------------------------------------------------|
-------13-14-13-14-13--------------------------------------------------|
-15-16----------------16-15-16-----------------------------------------|
-----------------------------------------------------------------------|
-----------------------------------------------------------------------|
Riff 3
------------------------------|---------------------------------------|
------------------------------|---------------------------------------|
------------------------------|-X2------------------------------------|
------------------------------|---------------------------------------|
------------------------------|---------------------------------------|
-0-0-0---0-0-0---0-0-0---0-0-0|---------------------------------------|
Riff 4 
----------------|------------------------------------------------------|
----------------|------------------------------------------------------|
----------------|------------------------------------------------------|
-0-4-3-1-0-4-3-1|-X8---------------------------------------------------|
-0-4-3-1-0-4-3-1|------------------------------------------------------|
-0-4-3-1-0-4-3-1|------------------------------------------------------|

Riff 3 X2

Riff 5
--------------------------------------|--------------------------------|
--------------------------------------|--------------------------------|
--------------------------------------|--------------------------------|
--------------------------------------|-3-7-6-3-6-3-6-7----------------|
--------------------------------------|--------------------------------|
-0-0-0-0---0-0-0-0---0-0-0-0---0-0-0-0|--------------------------------|

--------------------------------------|--------------------------------|
--------------------------------------|--------------------------------|
--------------------------------------|--------------------------------|
--------------------------------------|-5-8-7-5-7-5-7-8----------------|
--------------------------------------|--------------------------------|
-0-0-0-0---0-0-0-0---0-0-0-0---0-0-0-0|--------------------------------|

--------------------------------------|--------------------------------|
--------------------------------------|--------------------------------|
--------------------------------------|--------------------------------|
--------------------------------------|-3-7-6-3-6-3-6-7----------------|
--------------------------------------|--------------------------------|
-0-0-0-0---0-0-0-0---0-0-0-0---0-0-0-0|--------------------------------|
                                       Riff 6
--------------------------------------|-------------|------------------|
--------------------------------------|-------------|------------------|
--------------------------------------|-------------|------------------|
--------------------------------------|------------1|-X3---------------|
--------------------------------------|------------1|------------------|
-0-0-0-0---0-0-0-0---0-0-0-0---0-0-0-0|--0--8--7---1|------------------|
Riff 7
--------------------------------------|--------------------------------|
--------------------------------------|--------------------------------|
--------------------------------------|---END--------------------------|
--------------------------------------|--------------------------------|
--------------------0--1--5-----------|--------------------------------|
-0-0-0-0---0-0-0-0--0--1--5-----------|--------------------------------|
Thank you sorry if there are mistake. enjoy tabbed by liamr55
cheak out my band Sleight Ov Baphomet on facebook

T
Tap to rate this tab
# A B C D E F G H I J K L M N O P Q R S T U V W X Y Z