Song name
# A B C D E F G H I J K L M N O P Q R S T U V W X Y Z

Behemoth - Ov Fire And The Void tab

Ov Fire and the Void

D♭/C♯Tuning (from low to high) = D♭-G♭-B-E-A♭-D♭/C#-F#-B-E-G#-C#

* = Tremelo pick.
. = Palm mute.
^ = Bend up.
/ = Slide down.
/ = Slide up.
~ = Vibrato.
rb= Release bend.
h = Hammer-on.


This entire song was learned by ear, so there may be a few minor mistakes.  However, I
believe that this tab is accurate enough to play the song next to perfectly.  This song
was written using seven-stringed guitars (that’s a fact as I asked Nergal himself) and 
transposed for a six stringed guitar. I hope this tab is enjoyed, and feel free to post any
comments/critiques (don’t be a dick though!).   


Guitar 1 – Seth
Guitar 2 – Nergal
Guitar 3 – Seth Lead


Intro

 Guitar 1
|-----------------------------------------------------|
|------1*---0*------------------0*--------------------|
|----------------------------------3*-----------------|
|-2------------3*--------2------------3*--------------|
|-2----------------------2----------------------------|
|-0----------------------0----------------------------|
|                                                  | Played 2X
|Guitar 2                                             |
|-----------------------------------------------------|
|-----------------------------------------------------|
|-----------------------------------------------------|
|-2----------------------2----------------------------|
|-2----------------------2----------------------------|
|-0------------0*--------0------------0*--------------|


Guitar 1
|-----------------------------------------------------|
|------1*---0*------------------0*--------------------|
|----------------------------------3*-----------------|
|-2------------3*--------2------------3*--------------|
|-2----------------------2----------------------------|
|-0----------------------0----------------------------|
|                                                  | Played 2X
|Guitar 2                                             |
|-----------------------------------------------------|
|-----------------------------------------------------|
|-----------------------------------------------------|
|-2----------------------2----------------------------|
|-2----------------------2----------------------------|
|-0----1*---0*-1*--------0------1*-0*-1*--------------|


Verse Pt. 1

The main chords used in the verses and throughout the song are the d♭/c# minor,
and c minor/c minor 11th chords. These chords fit Behemoth's love for the c minor phrygian
key and scale(I am pretty sure that while recording Behemoth layered c minor chords with 
c minor 11th chords.  I may be wrong, but it doesn't sound exactly like a c minor in 
the recording.)

 Guitar 1
|----------------------------------|
|----8-8-8-8-----8-8-8-8-7-7-7-7---|
|----9-9-9-9-----9-9-9-9-6-6-6-6---|
|----9-9-9-9-----9-9-9-9-8-8-8-8---|
|----7-7-7-7-----7-7-7-7-6-6-6-6---|
|-0-----------0--------------------|
|                                  | Played 3X
|Guitar 2                          |
|----------------------------------|
|----------------------------------|
|----------------------------------|
|----------------------------------|
|----------------------------------|
|----------------------------------|





|----------------------------------|
|----8-8-8-8-----------------------|
|----9-9-9-9-----------------------|
|----9-9-9-9-----8-5-8---5-4-5-----|
|----7-7-7-7-----6-3-6---3-2-3-----|
|-0-----------0--6-3-6---3-2-3-----|
|                . .     . .       |
|Guitar 2                          |
|----------------------------------|
|----------------------------------|
|----------------------------------|
|----------------8-5-8---5-4-5-----|
|----------------6-3-6---3-2-3-----|
|-------------0--6-3-6---3-2-3-----|
                 . .     . .


Verse Pt. 2

Played 3X

|----------------------------------|
|----8-8-8-8-----8-8-8-8-7-7-7-7---|
|----9-9-9-9-----9-9-9-9-6-6-6-6---|
|----9-9-9-9-----9-9-9-9-8-8-8-8---|
|----7-7-7-7-----7-7-7-7-6-6-6-6---|
|-0-----------0--------------------|
|                                  |
|Guitar 2                          | Played 3X
|----------------------------------|
|------------------------7-7-7-7---|
|------------------------6-6-6-6---|
|-2--2-2-2-2-------2-2-2-8-8-8-8---|
|-2--2-2-2-2-------2-2-2-6-6-6-6---|
|-0--0-0-0-0-------0-0-0-----------|
     . . . .       . . .

 Guitar 1
|----------------------------------|
|----8-8-8-8-----------------------|
|----9-9-9-9-----------------------|
|----9-9-9-9-----8-5-8---5-4-5-----|
|----7-7-7-7-----6-3-6---3-2-3-----|
|-0-----------0--6-3-6---3-2-3-----|
|                . .     . .       |
|Guitar 2                          |
|----------------------------------|
|----------------------------------|
|----------------------------------|
|-2--2-2-2-2-----8-5-8---5-4-5-----|
|-2--2-2-2-2-----6-3-6---3-2-3-----|
|-0--0-0-0-0-----6-3-6---3-2-3-----|
     . . . .     . .     . .



Chorus

Played 2X

 Guitars 1&2
|-------------------------------------------------------------|
|-------------------------------------------------------------|
|-3---3----------------2*-----3---3-----------------0*--------|
|-3-5-3---5-4-5-4---4*----4*--3-5-3---5-4-5-2---2*-----2*-----|
|-1-5-1---5-4-5-4-------------1-5-1---5-4-5-2-----------------|
|---3-----3-2-3-2---------------3-----3-2-3-0-----------------|
    .     . . .                 .     . . .

 Guitar 1
|-------------------------------------------------------------|
|-------------------------------------------------------------|
|-3---3----------------2*----4*^-------------------3--------2-|
|-3-5-3---5-4-5-4---4*----4*---------------------5--------4---|
|-1-5-1---5-4-5-4------------------------------5--------4-----|
|---3-----3-2-3-2----------------------------3--------2-------|
|   .     . . .                     Let Ring----------------- |
|Guitar 2                                                     |
|---------------------------------------------------------------|
|---------------------------------------------------------------|
|-3---3----------------2*------------------------3--------2-----|
|-3-5-3---5-4-5-4---4*----4*-222-222-222-222---5---5----4---4---|
|-1-5-1---5-4-5-4------------222-222-222-222-5--------4---------|
|---3-----3-2-3-2------------000-000-000-000--------------------|
    .     . . .              ... ... ... ... Let Ring-----------|



Bridge Pt. 1

Played 2X

 Guitars 1
|-----------------------------------------------------|
|------1*---0*----------------0*----------------------|
|----------------------------------3*-----------------|
|-2--------------3*------2--------------3*------------|
|-2----------------------2----------------------------|
|-0----------------------0----------------------------|
|                                                     |
|Guitar 2                                             |
|-----------------------------------------------------|
|-----------------------------------------------------|
|-----------------------------------------------------|
|-2----2*---2*---2*------2----2*---2*---2*------------|
|-2----2*---2*---2*------2----2*---2*---2*------------|
|-0----0*---0*---0*------0----0*---0*---0*------------|
       .    .    .            .    .    .


 Guitar 1
|--------------------------------------------------------|
|------1*---0*-------------------------------------------|
|--------------------------------------------------------|
|-2--------------3*--2*--1*----1*----1*--2*--4*--2*--5^--|
|-2-------------------------3*----3*---------------------|
|-0------------------------------------------------------|
|                                                        |
|Guitar 2                                                |
|--------------------------------------------------------|
|--------------------------------------------------------|
|--------------------------------------------------------|
|-2----2*---2*---2*--2*--1*----1*----1*--2*--4*--2*--5^--|
|-2----2*---2*---2*---------3*----3*---------------------|
|-0----0*---0*---0*--------------------------------------|
       .    .    .


Bridge Pt. 2

Played 2X

 Guitar 1
|---------------------------------------------------|
|---------------------------------------------------|
|--4*--3*----------3*-------------------------------|
|--------------5*------5*--4*--5*--2*--4*------2*---|
|------------------------------------------3*-------|
|---------------------------------------------------|
|                                                   |
|Guitar 2                                           |
|---------------------------------------------------|
|---------------------------------------------------|
|--4*--3*----------3*-------------------------------|
|--------------5*------5*--4*--5*--2*--4*-----------|
|------------------------------------------3*--2*---|
|---------------------------------------------------|


 Guitar 1
|---------------------------------------------------|
|---------------------------------------------------|
|--4*--3*----------3*-------------------------------|
|--------------5*------5*--4*--5*--2*--4*------2*---|
|------------------------------------------3*-------|
|---------------------------------------------------|
|                                                   |
|Guitar 2                                           |
|---------------------------------------------------|
|---------------------------------------------------|
|--8*--7*----------7*-------------------------------|
|--------------9*------9*--8*--9*--6*--8*------6*---|
|------------------------------------------7*-------|
|---------------------------------------------------|


 Guitar 1
|---------------------------------------------------|
|---------------------------------------------------|
|--4*--3*----------3*-------------------------------|
|--------------5*------5*--4*--5*--2*--4*-----------|
|------------------------------------------3*---2*--|
|---------------------------------------------------|
|                                                   |
|Guitar 2                                           |
|-----------------------------------------------------|
|-----------------------------------------------------|
|-----------------------------------------------------|
|--2-----------(2)-----------(2)-----------(2)--------|
|--2-----------(2)-----------(2)-----------(2)--------|
|--0-----------(0)-----------(0)-----------(0)--------|
 Hold the chord and let it ring-----------------------|

 Guitar 1
|-----------6-----------3----------------------------------------------|
|--------6------------3------------------------------------------------|
|-----6-------------3--------------------------------------------------|
|--6--------------3----------------------------------------------------|
|----------------------------------------------------------------------|
|----------------------------------------------------------------------|
|Let Ring--------------------------                                 ---|
|Guitar 2                          |
|----------------------------------|
|----------------------------------|
|----------------------------------|
|--6--------------3----------------|
|----------------------------------|
|--4--------------1----------------|


Solo


Guitar 3
|--------------------------------------|
|--------------------------------------|
|-5/9~----/10~--/12~-------------------|
|--------------------------------------|
|---------------------6^rb^rb^rb--7~---|
|--------------------------------------|

|-------------------------------------------|
|-------------------------------------------|
|-------------7h9h10------7h9h10-12-10-7-9~-|
|-------7h9h10------7h9h10------------------|
|-7h9h10------------------------------------|
|-------------------------------------------|

|---------------------------------------------------------------------|
|---------------------------------------------------------------------|
|-9/14-14\12-12\10\9-8\5---5/9--8----8--8/9--8-----8----8-9~----------|
|----------------------------------10------------10---10--------------|
|---------------------------------------------------------------------|
|---------------------------------------------------------------------|

Solo Rhythm

 Guitar 2
|--------------------------------------|
|--------------------7-7-7-7-----------|
|--------------------6-6-6-6-----------|  Played through the solo.
|-2--2-2-2----2-2-2--8-8-8-8-----------|
|-2--2-2-2----2-2-2--6-6-6-6-----------|
|-0--0-0-0----0-0-0--------------------|
     . . .    . . .

Outro Part 1
Play 2X

 Guitar 1
|----------------------------------|
|----------------------------------|
|--(9)------(9)------(9)------(9)--|
|----------------------------------|
|----------------------------------|
|----------------------------------|
|                                  | Played 3X
|Guitar 2                          |
|----------------------------------|
|----8-8-8-8-----8-8-8-8-7-7-7-7---|
|----9-9-9-9-----9-9-9-9-6-6-6-6---|
|----9-9-9-9-----9-9-9-9-8-8-8-8---|
|----7-7-7-7-----7-7-7-7-6-6-6-6---|
|-0-----------0--------------------|

 Guitar 1
|----------------------------------|
|----------------------------------|
|--(9)-------(9)-------------------|
|----------------8-5-8---5-4-5-----|
|----------------6-3-6---3-2-3-----|
|----------------6-3-6---3-2-3-----|
|                . .     . .       |
|Guitar 2                          |
|----------------------------------|
|----8-8-8-8-----------------------|
|----9-9-9-9-----------------------|
|----9-9-9-9-----8-5-8---5-4-5-----|
|----7-7-7-7-----6-3-6---3-2-3-----|
|-0-----------0--6-3-6---3-2-3-----|
                 . .     . .
 Guitar 1
|----------------------------------|
|----8-8-8-8-----8-8-8-8-7-7-7-7---|
|----9-9-9-9-----9-9-9-9-6-6-6-6---|
|----9-9-9-9-----9-9-9-9-8-8-8-8---|
|----7-7-7-7-----7-7-7-7-6-6-6-6---|
|-0-----------0--------------------|
|                                  | Played 3X
|Guitar 2                          |
|----------------------------------|
|----------------------------------|
|----------------------------------|
|-2-------(2)-------(2)-------(2)--|
|-2-------(2)-------(2)-------(2)--|
|-0-------(0)-------(0)-------(0)--|

 Guitar 1
|----------------------------------|
|----8-8-8-8-----------------------|
|----9-9-9-9-----------------------|
|----9-9-9-9-----8-5-8---5-4-5-----|
|----7-7-7-7-----6-3-6---3-2-3-----|
|-0-----------0--6-3-6---3-2-3-----|
|                . .     . .       |
|Guitar 2                          |
|----------------------------------|
|----------------------------------|
|----------------------------------|
|--(2)-----------8-5-8---5-4-5-----|
|--(2)-----------6-3-6---3-2-3-----|
|--(0)--------0--6-3-6---3-2-3-----|
                 . .     . .

 Guitar 1
|----------------------------------|
|----8-8-8-8-----8-8-8-8-7-7-7-7---|
|----9-9-9-9-----9-9-9-9-6-6-6-6---|
|----9-9-9-9-----9-9-9-9-8-8-8-8---|
|----7-7-7-7-----7-7-7-7-6-6-6-6---|
|-0-----------0--------------------|
|                                  | Play 3X
|Guitar 2                          |
|----------------------------------|
|------------------------7-7-7-7---|
|------------------------6-6-6-6---|
|-2--2-2-2-2-------2-2-2-8-8-8-8---|
|-2--2-2-2-2-------2-2-2-6-6-6-6---|
|-0--0-0-0-0-------0-0-0-----------|
     . . . .       . . .

 Guitar 1
|----------------------------------|
|----8-8-8-8-----------------------|
|----9-9-9-9-----------------------|
|----9-9-9-9-----8-5-8---5-4-5-----|
|----7-7-7-7-----6-3-6---3-2-3-----|
|-0-----------0--6-3-6---3-2-3-----|
|                . .     . .       |
|Guitar 2                          |
|----------------------------------|
|----------------------------------|
|----------------------------------|
|-2--2-2-2-2-----8-5-8---5-4-5-----|
|-2--2-2-2-2-----6-3-6---3-2-3-----|
|-0--0-0-0-0-----6-3-6---3-2-3-----|
     . . . .     . .     . .
Tap to rate this tab
# A B C D E F G H I J K L M N O P Q R S T U V W X Y Z