Song name
# A B C D E F G H I J K L M N O P Q R S T U V W X Y Z

Behemoth - Starspawn tab

Help us improve GuitareTab! Take a short survey!
Riff A
d|--------------------------------------------------------|
A|--------------------------------------------------------|
F|----------------6-8-------------------------------------|
C|-8--8-8--8\6/8--4-6-9-----8--8-8--8\6/8---4-5-6-8-------|
G|-6--6-6--6\4/6------7-----6--6-6--6\4/6---2-3-4-6-------|
D|--------------------------------------------------------|

d|--------------------------------------------------------|
A|--------------------------------------------------------|
F|----------------6-8-------------------------------------|
C|-8--8-8--8\6/8--4-6-9-----8--8-8--8\6/8---4-5-6-8-------|
G|-6--6-6--6\4/6------7-----6--6-6--6\4/6---2-3-4-6-------|
D|--------------------------------------------------------|

d|--------------------------------------------------------|
A|--------------------------------------------------------|
F|----------------6-8-------------------------------------|
C|-8--8-8--8\6/8--4-6-9-----8--8-8--8\6/8---4-5-6-8-------|
G|-6--6-6--6\4/6------7-----6--6-6--6\4/6---2-3-4-6-------|
D|--------------------------------------------------------|

d|--------------------------------------------------------|
A|--------------------------------------------------------|
F|----------------6-8-------------------------------------|
C|-8--8-8--8\6/8--4-6-9-----8--8-8--8\6/8---4-5-6-8-------|
G|-6--6-6--6\4/6------7-----6--6-6--6\4/6---2-3-4-6-------|
D|--------------------------------------------------------|
							  x x x x

Riff B
d|--------------------------------------------------------|
A|--------------------------------------------------------|
F|----------------6-8-------------------------------------|
C|-8--8-8--8\6/8--4-6-9-----8--8-8--8\6/8---4-5-6-8-------|
G|-6--6-6--6\4/6------7-----6--6-6--6\4/6---2-3-4-6-------|
D|--------------------------------------------------------|
      x x                      x x
d|--------------------------------------------------------|
A|--------------------------------------------------------|
F|----------------6-8-------------------------------------|
C|-8--8-8--8\6/8--4-6-9-----8--8-8--8\6/8---4-5-6-8-------|
G|-6--6-6--6\4/6------7-----6--6-6--6\4/6---2-3-4-6-------|
D|--------------------------------------------------------|
	x x                      x x		  x x x x

Riff C
d|--------------------------------------------------------|
A|--------------------------------------------------------|
F|--------7---------7/8----------8\7----------------------|
C|--------7---------7/8----------8\7----------------------|
G|-5-5-5-----5-5-5--------5-5-5-------5-5-5-4-3-1---------|
D|--------------------------------------------------------|
   x x x     x x x        x x x       x x x x x x	(4x)

Riff D
d|--------------------------------------------------------|
A|--------------------------------------------------------|
F|--------9---------8-------------------------------------|
C|--------9---------8---8-----7---------------------------|
G|-5-5-5-----5-5-5---------6-----5------------------------|
D|--------------------------------------------------------|
   x x x     x x x

d|--------------------------------------------------------|
A|--------------------------------------------------------|
F|--------9---------8--------8h9p8------------------------|
C|--------9---------8--------------9-8--------------------|
G|-5-5-5-----5-5-5------6-7-------------------------------|
D|--------------------------------------------------------|
   x x x     x x x

Repeat riff C 2x
Repeat riff D 4x

Riff E
d|--------------------------------------------------------|
A|--------------------------------------------------------|
F|-7--4-------8--4---------7--4-------8--4----------------|
C|-5--2--3----6--2--3------5--2--3----6--2--3-------------|
G|-------1----------1------------1----------1-------------|
D|--------------------------------------------------------|

Riff F
d|--------------------------------------------------------|
A|--------------------------------------------------------|
F|---3-3-4----------3-3-2----------3-3-4---------3-3-2----|
C|-1-------4-----1--------2-----1--------4----1--------2--|
G|--------------------------------------------------------|
D|--------------------------------------------------------|

Riff G (solo 1)
d|--------------------------------------------------------|
A|-----------------------4~------------6h7p6p4------------|
F|-8~--8-8--8h9--8-6----------6h7p6p4---------------------|
C|--------------------9-----------------------------------|
G|--------------------------------------------------------|
D|--------------------------------------------------------|

Another part of the solo (dunno it)
d|---------------------------12~--------------------------|
A|--------------8-10--12-10-------------------------------|
F|-8~-8-8-9-11--------------------------------------------|
C|--------------------------------------------------------|
G|--------------------------------------------------------|
D|--------------------------------------------------------|

repeat riff c 4x
repeat riff d 4x
repeat riff e 4x

Riff H (solo 2)
d|-7p4-6h7p6p4---7p4-6h7p6p4---7p4-6h7p6p4---7p4-6h7p6p4--|
A|--------------------------------------------------------|
F|--------------------------------------------------------|
C|--------------------------------------------------------|
G|--------------------------------------------------------|
D|--------------------------------------------------------|

d|--------------------------------------------------------|
A|-7p4-6h7p6p4---7p4-6h7p6p4---7p4-6h7p6p4----------------|
F|-------------------------------------------7p4-6h7p6p4--|
C|--------------------------------------------------------|
G|--------------------------------------------------------|
D|--------------------------------------------------------|

Rest of the song is missing (damn difficult solo)

Dziękuję :P
Related for Starspawn tab