Song name
# A B C D E F G H I J K L M N O P Q R S T U V W X Y Z

Behemoth - Alas Lord Is Upon Me tab

------------------------------------------------------------------
                BEHEMOTH - Alas, Lord Is Upon Me
------------------------------------------------------------------
Artist: Behemoth
Title : Alas, Lord Is Upon Me
Tabbed By: Fermi666

Hello everyone, i'm new here (amateur), and I'm not a profesional, but 
i've do the best for this, so, i'm sorry if i  have make a 
mistake about this tab, i hope it's helping. And here we go

Guitar 1 & 2

Intro 
e|---4-4----|
b|--6-5-6-6-|
g|-------5--| Play it 8x
D|----------|
A|----------|
E|-0--------|

e|--------------------------------------------|
b|--------------------------------------------|
g|--------------------------------------------| Play it 4x
D|--------------------------------------------|
A|----2-8-8-8-2-1-1---7-4-2-8-8-8---2-3-2-----|
E|-0-0--------------0-0-----------0-0------0-2|

Chorus
e|---4-4----|
b|--6-5-6-6-|
g|-------5--| Play it 12x
D|----------|
A|----------|
E|-0--------|

e|--------------------------------------------|
b|--------------------------------------------|
g|--------------------------------------------| Play it 9x
D|--------------------------------------------|
A|----2-8-8-8-2-1-1---7-4-2-8-8-8---2-3-2-----|
E|-0-0--------------0-0-----------0-0------0-2|

e|---4-4----|
b|--6-5-6-6-|
g|-------5--| Play it 12x, but faster
D|----------|
A|----------|
E|-0--------|

I'm sorry if make you confused, but i do the best for this. And, thats all.....
Tap to rate this tab
 
# A B C D E F G H I J K L M N O P Q R S T U V W X Y Z