Song name
# A B C D E F G H I J K L M N O P Q R S T U V W X Y Z

Behemoth - Blow Your Trumpets Gabriel tab

Tuning:C# F# B E G# C#

C#]--------------------------|
G#]--------------------------|
E ]------5-4-5------5-4-5----|
B ]------3-2-3------3-2-3----|          Repeat
F#]--------------------------|
C#]--0----------0------------|

C#]--------------------------|
G#]--------------------------|
E ]------5-4-5------5-4-5----|
B ]------3-2-3------3-2-3----|          Repeat
F#]--------------------------|
C#]--0----------0------------|
Tap to rate this tab
 
# A B C D E F G H I J K L M N O P Q R S T U V W X Y Z