Song name
# A B C D E F G H I J K L M N O P Q R S T U V W X Y Z

Behemoth - Sculpting The Throne Ov Seth tab

C#|-------------------------------------------------------|
G#|-------------------------------------------------------|
E |-----9-------9-------9-----------9----------10---------|
B |-------------------------------------------------------|
F#|---7---8-7-8---8-7-8---8-7-8---7---8-7-8--7---8-7-8----|
C#|-0---------------------------0-----------0-------------|

C#|-------------------------------------------------------|
G#|-------------------------------------------------------|
E |-----9-------9-------9-----------9----------10---------|
B |-------------------------------------------------------|
F#|---7---8-7-8---8-7-8---8-7-8---7---8-7-8--7---8-7-8----|
C#|-0---------------------------0-----------0-------------|

C#|---------------------------------------------------------------------|
G#|-----12---------12---------12-------------12------------13-----------|
E |---------------------------------------------------------------------|
B |---9----10-9-10----10-9-10----10-9-10---9----10-9-10--9----10-9-10---|
F#|---------------------------------------------------------------------|
C#|-0------------------------------------0--------------0---------------|

C#|---------------------------------------------------------------------|
G#|-----12---------12---------12-------------12------------13-----------|
E |---------------------------------------------------------------------|
B |---9----10-9-10----10-9-10----10-9-10---9----10-9-10--9----10-9-10---|
F#|---------------------------------------------------------------------|
C#|-0------------------------------------0--------------0---------------|

C#|-------------------------------------------------------|
G#|-------------------------------------------------------|
E |-----9-------9-------9-----------9----------10---------|
B |-------------------------------------------------------|
F#|---7---8-7-8---8-7-8---8-7-8---7---8-7-8--7---8-7-8----|
C#|-0---------------------------0-----------0-------------|

C#|-------------------------------------------------------|
G#|-------------------------------------------------------|
E |-----9-------9-------9-----------9----------10---------|
B |-------------------------------------------------------|
F#|---7---8-7-8---8-7-8---8-7-8---7---8-7-8--7---8-7-8--2--|
C#|-0---------------------------0-----------0-----------0--|

C#|-----------------------------------------------------------|
G#|-----------------------------------------------------------|
E |----10--9---7---7/--9------14---13---10--13---14---10--13--|
B |-----------------------------------------------------------|
F#|-2--8---7---5---5/--7---2--12---11---8---11---12---8---11--|
C#|-0----------------------0----------------------------------|

C#|-------------------------------------------------------------------|
G#|-------------------------------------------------------------------|
E |----10--9---7---7/--9----------------------------------------------|
B |------------------------9--10-9----7--9--7----6--7--6--------------|
F#|-2--8---7---5---5/--7-----------------------------------3--6--3----|
C#|-0----------------------7--8--7----5--7--5----4--5--4---1--4--1----|

C#|-----------------------------------------------------------|
G#|-----------------------------------------------------------|
E |----10--9---7---7/--9------14---13---10--13---14---10--13--|
B |-----------------------------------------------------------|
F#|-2--8---7---5---5/--7---2--12---11---8---11---12---8---11--|
C#|-0----------------------0----------------------------------|

C#|-------------------------------------------------------------------|
G#|-------------------------------------------------------------------|
E |----10--9---7---7/--9----------------------------------------------|
B |------------------------9--10-9----7--9--7----6--7--6--------------|
F#|-2--8---7---5---5/--7-----------------------------------3--6--3----|
C#|-0----------------------7--8--7----5--7--5----4--5--4---1--4--1----|

C#|--------------------------------------------------------------------|
G#|--------------------------------------------------------------------|
E |------------------9--8-----------------------------------------7--8-|
B |-----10-9--10-----7--6-----10-9--10-----10-7------10-9--10-----7--6-|
F#|-----8--7--8---------------8--7--8------8--5------8--7--8-----------|
C#|-0-0----------0-0------0-0----------0-0-------0-0----------0-0------|

C#|--------------------------------------------------////-----------|
G#|-------------------------5-5-5-5-4-4-4-4-------5*/---/-----------|
E |---------4-4-4-4-5-5-5-5-----------------5-----------------------|
B |-7-7-7-7---------------------------------------------------------|
F#|--------------------------------------------------------7--6--3--|
C#|--------------------------------------------------------5--4--1--|

C#|--------------------------------------------------------------------|
G#|--------------------------------------------------------------------|
E |------------------9--8-----------------------------------------7--8-|
B |-----10-9--10-----7--6-----10-9--10-----10-7------10-9--10-----7--6-|
F#|-----8--7--8---------------8--7--8------8--5------8--7--8-----------|
C#|-0-0----------0-0------0-0----------0-0-------0-0----------0-0------|

C#|--------------------------------------------------////-----------|
G#|-------------------------5-5-5-5-4-4-4-4-------5*/---/-----------|
E |---------4-4-4-4-5-5-5-5-----------------5-----------------------|
B |-7-7-7-7---------------------------------------------------------|
F#|--------------------------------------------------------7--6--3--|
C#|--------------------------------------------------------5--4--1--|


C#|-----------------------------------------------------|
G#|-----------------------------------------------------|
E |-----------------------------------------------------|
B |-----------------------------------------------------|
F#|-7--6--x--3--6--3-------7--6--x--3--6--3-------------|
C#|-5--4--x--1--4--1--0-0--5--4--x--1--4--1-------------|

C#|-----------------------------------------------------|
G#|-----------------------------------------------------|
E |-----------------------------------------------------|
B |-----------------------------------------------------|
F#|--7-7-7-7-6-6-6-6---------6-6-6-6--------------------|
C#|------------------8-8-8-8---------8-8-8-8-7-7-7-7-5--|

C#|-----------------------------------------------------|
G#|-----------------------------------------------------|
E |-----------------------------------------------------|
B |-----------------------------------------------------|
F#|-7--6--x--3--6--3-------7--6--x--3--6--3-------------|
C#|-5--4--x--1--4--1--0-0--5--4--x--1--4--1-------------|

C#|-----------------------------------------------------|
G#|-----------------------------------------------------|
E |-----------------------------------------------------|
B |-----------------------------------------------------|
F#|--7-7-7-7-6-6-6-6---------6-6-6-6--------------------|
C#|------------------8-8-8-8---------8-8-8-8-7-7-7-7-5--|

C#|--------------------------------------------------------------------|
G#|--------------------------------------------------------------------|
E |------------------9--8-----------------------------------------7--8-|
B |-----10-9--10-----7--6-----10-9--10-----10-7------10-9--10-----7--6-|
F#|-----8--7--8---------------8--7--8------8--5------8--7--8-----------|
C#|-0-0----------0-0------0-0----------0-0-------0-0----------0-0------|

C#|--------------------------------------------------////-----------|
G#|-------------------------5-5-5-5-4-4-4-4-------5*/---/-----------|
E |---------4-4-4-4-5-5-5-5-----------------5-----------------------|
B |-7-7-7-7---------------------------------------------------------|
F#|--------------------------------------------------------7--6--3--|
C#|--------------------------------------------------------5--4--1--|

C#|--------------------------------------------------------------------|
G#|--------------------------------------------------------------------|
E |------------------9--8-----------------------------------------7--8-|
B |-----10-9--10-----7--6-----10-9--10-----10-7------10-9--10-----7--6-|
F#|-----8--7--8---------------8--7--8------8--5------8--7--8-----------|
C#|-0-0----------0-0------0-0----------0-0-------0-0----------0-0------|

C#|--------------------------------------------------////-----------|
G#|-------------------------5-5-5-5-4-4-4-4-------5*/---/-----------|
E |---------4-4-4-4-5-5-5-5-----------------5-----------------------|
B |-7-7-7-7---------------------------------------------------------|
F#|--------------------------------------------------------7--6--3--|
C#|--------------------------------------------------------5--4--1--|


C#|-----------------------------------------------------|
G#|-----------------------------------------------------|
E |-----------------------------------------------------|
B |-----------------------------------------------------|
F#|-7--6--x--3--6--3-------7--6--x--3--6--3-------------|
C#|-5--4--x--1--4--1--0-0--5--4--x--1--4--1-------------|

C#|-----------------------------------------------------|
G#|-----------------------------------------------------|
E |-----------------------------------------------------|
B |-----------------------------------------------------|
F#|--7-7-7-7-6-6-6-6---------6-6-6-6--------------------|
C#|------------------8-8-8-8---------8-8-8-8-7-7-7-7-5--|

C#|-----------------------------------------------------|
G#|-----------------------------------------------------|
E |-----------------------------------------------------|
B |-----------------------------------------------------|
F#|-7--6--x--3--6--3-------7--6--x--3--6--3-------------|
C#|-5--4--x--1--4--1--0-0--5--4--x--1--4--1-------------|

C#|-----------------------------------------------------|
G#|-----------------------------------------------------|
E |-----------------------------------------------------|
B |-----------------------------------------------------|
F#|--7-7-7-7-6-6-6-6---------6-6-6-6--------------------|
C#|------------------8-8-8-8---------8-8-8-8-7-7-7-7-5--|

C#|---------------------------------------------------------|
G#|-8---8---9----------8---8---9----------------------------|
E |-9---9---10---------9---9---10---------------------------|
B |-9---9---10---------9---9---10---------------------------| x4
F#|-7---7---8---3--2---7---7---8---3--2---------------------|
C#|-------------1--0---------------1--0---------------------|

C#|-----------------------------------------------------------------|
G#|-----------------------------------------------------------------|
E |-----------------------------------------------------------------|
B |-----------------------------------------------------------------|
F#|-----------------------------------------------------------------|
C#|-0-0-0-0-5-5-5-5-4-4-4-4-1-1-1-1-4-4-4-4-5-5-5-5-4-4-4-4-0-0-0-0-|

C#|-----------------------------------------------------|
G#|-----------------------------------------------------|
E |-----------------------------------------------------|
B |-----------------------------------------------------|
F#|-------------------3-3-3-3---------------------------|
C#|-5-5-5-5-5-4-4-4-4---------5-5-5-5-4-5-4-5-----------|
Tap to rate this tab
# A B C D E F G H I J K L M N O P Q R S T U V W X Y Z