Song name
# A B C D E F G H I J K L M N O P Q R S T U V W X Y Z

Behemoth - With Spell Of Inferno tab

Riff 1
e|-------------------------------------------|
b|-------------------------------------------|
g|-------------------------------------------|
d|-------------------------------------------|
a|----10107777997766------101077779977661010-|
e|0000--------------880000-------------------|

-------------------------------------|
-------------------------------------|
-------------------------------------|
-------------------------------------|
----10107777997766------5544----4444-|
0000--------------883333----2222-----|

Riff 2
e|-----------------------------------------|
b|-----------------------------------------|
g|-----------------------------------------|
d|-----------------------------------------|
a|----66--77--676-999999991010101010101010-|
e|0000--00--00---877777777-8-8-8-8-8-8-8-8-|

---------------------------------|
---------------------------------|
---------------------------------|
---------------------------------|
----66--77--020-----5544----4444-|
0000--00--00---23333----2222-----|

Riff 3
e|-------------------------------------------------------|
b|-------------------------------------------------------|
g|-------------------------------------------------------|
d|---5-4---9------5-4-2--1------5-4---9------5-4-2-1-----|
a|---3-2---7------3-2-----------3-2---7------3-2-----3-2-|
e|000---000----000-----------000---000----000------------|
Tap to rate this tab
# A B C D E F G H I J K L M N O P Q R S T U V W X Y Z