Guitaretab - guitar tabs
Song name
# A B C D E F G H I J K L M N O P Q R S T U V W X Y Z

Behemoth - Before Aeons Came tab

Band:     Behemoth
Album:    Demigod
Song:     Before Aeons Came
Tabber:   davebooska

OK so this is my first tab. I pretty much know it's incorrect, but it sounds somewhat 
to me. If someone could pick up where I left off that would be awesome.

This is what I got for the second guitar that starts up 0:09 seconds into the song.
[ Tab from: http://www.guitaretab.com/b/behemoth/85669.html ]
D|---------------------------------|
A|---------------------------------|
F|----4--3-------------------------|
c|-2--------3--4-------------------|
G|-2--2--1-----4----3--------------|
D|-0--------1--2----1--000-0-------|
                       ... .

D|--------------------------------------------------------|
A|--------------------------------------------------------|
F|--------------------------------------------------------|
C|-2----4-3----------4-3----------4-3---------------------|
G|-2----2-1-3-1------2-1---2------2-1---3-----------------|
D|-0000-------1--000-----4-2--000-----5-3--543065430------|
    ...          ...          ...          .........

SOMEONE PLEASE MAKE A FULL TAB OF THIS SONG!!!
Related for Before Aeons Came tab
Advertisement will be closed in 10 seconds