Song name
# A B C D E F G H I J K L M N O P Q R S T U V W X Y Z

Behemoth - Arcana Hereticae tab

Help us improve GuitareTab! Take a short survey!
Arcana Hereticae by Behemoth
Tabbed by Jason
Tuning: C# (low to high: C# F# B E G# C#)

Sorry, I didn't manage to tab any of the solos; I can't tab death metal leads to save my life.
All the chords here should be pretty accurate though...the only parts I'm not 100% on
the second part of Intro B and the last few chords of the final outro, plus the rhythm or
of chords might be off here and there (eg. I think there's a bit of variation on the 
verse riff at various points). Nevertheless, this tab should at least give you enough to
along with the whole song.

Intro A/Verse
|----------------------------------|
|----------------------------------|
|--------7-6-------------7---7-6---|
|-7---8--7-6---7---8-----7---7-6-8-|
|-7---8--5-4---7---8-----5---5-4-8-|
|-5---6--------5---6-------------6-|

Intro B1
|----------------------------------|
|----------------------------------|
|----------------------------------|
|-7------7--5--7--7--6--7-10-9--6--|
|-----------------5--4--5-8--7--4--|
|-5---5555--3--5--5--4--5-8--7--4--|
      ...
Intro B2
|--------------------------------------------|
|--------------------------------------------|
|--------------------------------------------|
|-7------7/10-10-10/11-11-11-10-8--10-8--7/8-|
|-4------4-7--7--7--8--8--8--7--5--7--5--4-5-|
|-5---5555/8--8--8-/9--9--9--8--6--8--6--5/6-|
      ...
Intro C/Chorus

|-------------------------------|
|-------------------------------|
|-------------------------------|
|-10-----9------7------9--7--9--|
|-8---8887---7775---5557--5--7--|
|-8---8887---7775---5557--5--7--|
      ...    ...    ...
Outro A
|-------------------------------------------|
|-------------------------------------------|
|-10----9--6---9---10--14-13-10-101010-1010-|
|-10----9--6---9---10--14-13-10-101010-1010-|
|-8---887--4---7---8---12-11-8--8-8-8--8-8--|
|-8---887--4---7---8---12-11-8--8-8-8--8-8--|
      ..
Outro B
|-------------------------------------|
|-------------------------------------|
|-------------------------------------|
|-7-----6--3---6---7---10-9-6--666-66-|
|-7---776--3---6---7---10-9-6--666-66-|
|-5---554--1---4---5---8--7-4--444-44-|
      ..
Outro C
|----------------------------------------|-----------------------|
|----------------------------------------|-----------------------|
|------------------5--4-----------4--5/4-|-----------------------|
|-7-----9---10--6--5--4-----8--5--4--5/4-|-7-----9---10--6-------|
|-7-----9---10--6--3--2--6--6--3--2--3/2-|-7-----9---10--6-------|
|-5-----7---8---4--------4--6--3---------|-5-----7---8---4-------|
                            .  .
Final Outro
|-----------------------------------------|
|-----------------------------------------|
|-----------------------------------------|
|-7-----6--3---6---7---10-------------7---|
|-7---776--3---6---7---10--776--3--6--7---|
|-5---554--1---4---5---8---774--1--4--5---|
      ..                   ...  .  .
Related for Arcana Hereticae tab