Guitaretab - guitar tabs
Song name
# A B C D E F G H I J K L M N O P Q R S T U V W X Y Z

Behemoth - Inflamed With Rage tab

Behemoth
Inflamed with rage

tunnig 1 whole step down(D,G,C,F,A,D)


Riff 1
------------------------------------------------------------------|
------------------------------------------------------------------|
----99999----------1010101010---------88888-----------------------|repeat 2
----99999----------1010101010--(10)---88888-----------------------|
----77777----------8-8-8-8-8----------77777----10"---7"----9"-----|
----00000----------0-0-0-0-0----------00000-----------------------|

Riff 2
----------------------------------------------------------------|
----------------------------------------------------------------|
---99999----1010101010-----99999-----1010101010-----------------|
---99999----1010101010-----99999-----1010101010------(10)-------|repeat 1
---77777----8-8-8-8-8------77777-----8-8-8-8-8------------------|
---00000----0-0-0-0-0------00000-----0-0-0-0-0------------------|

Riff 3
C------------------------------------------------------------------|
G------7---10---9----7---10---9---7----10--------------------------|
D--------------------------------------------6p5p3---5p4p2---------|
                                 
Riff 4
C-------------------------------------------(9)--------------------|
G------7---10---9----7---10---9---7----10--------------------------|
D------------------------------------------------------------------|
[ Tab from: http://www.guitaretab.com/b/behemoth/97240.html ]
Riff 3
C------------------------------------------------------------------|
G------7---10---9----7---10---9---7----10--------------------------|
D--------------------------------------------6p5p3---5p4p2---------|
                                  


Riff 5
C-------------------------------|
G---------------7--6------------|
D---5--8--7--5-------8\7--------|

Riff 6
C------------------------------------------------------------------------|
G---------------7--6------------------7--6--(7)--------------7--6--------|
D---5--8--7--5-------8\7---5--8--7--5------------5--8-7--5---------8\7---|

Riff 7
C--------------------------------------------------------|
G---7---h10p10h10p10h10p10----6---h9p9h9p9h9p9-----------|trill
D--------------------------------------------------------|

Riff 8
C---------------------------|
G--4--7--6---10--9--7--9----|
D---------------------------|                       

Riff 9
C------------------------------------------|
G---10---9---7---6----------------6--------|
D---------------------7---6---5------------|

repeat every thing

Riff 10
b12----------------------------------------|
b12----------------------------------------|
-------5/15\5/9----------------------------|
--------------------------------------------|      
--------------------------------------------|        
--------------------------------------------|

Riff 11
C--------------------------------------------|
G--4--7--6--------6/7--6--7--9--10--7--6--7--|
D-----------7--6-----------------------------|


Riff 12
C----22222---------------------------------------|
G----22222---------------------------------------|
D----00000---------------------------------------|

Related for Inflamed With Rage tab