Song name
# A B C D E F G H I J K L M N O P Q R S T U V W X Y Z

Behemoth - Be Without Fear tab

-------------------------------------------------------------------------------
			     Be Without Fear - Behemoth
-------------------------------------------------------------------------------
Tabbed by: neonfox3
Email: neonfox3@yahoo.com

Tuning: C# F# B E G# C#

this is all the rhythem parts you hear out of the left speaker

I dont mean to compete with anybody but i just got sorta tired of seeing
this song tabbed with only the intro, i spent my entire day after i got
off work at 3:00pm tabbing this thing, and i think i got it dangerously close!
what i did was completely reduce the bass in it so all i could hear is
the guitar parts and i tabbed it by ear, so im almost possitive that its almost
perfect. and yes, it is a very long tab, i hate when people do the
play part 3 after part 4 and then 7 thing.
isn't that what the auto scroll is for anyway?

and if someone doesn't do a right speaker tab or a solo tab then chances are
on another day off i will do that as well.
but for now enjoy this.


main riff
e|-----------------------------------------|x3
B|-----------------------------------------|
G|-----------------------------------------|
D|-----------------------------------------|
A|-----------------------------------------|
E|-0-0000-0000-0000-444-111-333------------|
   . .... .... .... ... ... ...

00:07.8
e|-----------------------|
B|-----------------------|
G|-----------------------|
D|-----------------------|
A|---------------------2-|
E|-0000-0000-0000-0000-0-|
   .... .... .... .... 

00:10.3
e|-----------------------------------------|x6
B|-----------------------------------------|
G|-----------------------------------------|
D|-----------------------------------------|
A|-----------------------------------------|
E|-0-0000-0000-0000-444-111-333------------|
   . .... .... .... ... ... ...
those are 11's and 10's for the A string
not 1's and 0's
e|-------------------------------------------|x2
B|-------------------------------------------|
G|-------------------------------------------|
D|-------------------------------------------|
A|-8-8888-8888-8888-111111-888-101010--------|
E|-------------------------------------------|
   . .... .... .... . . .  ... . . .
e|-----------------------------------------|x2
B|-----------------------------------------|
G|-----------------------------------------|
D|-----------------------------------------|
A|-----------------------------------------|
E|-0-0000-0000-0000-444-111-333------------|
   . .... .... .... ... ... ...
e|-------------------------------------------|
B|-------------------------------------------|
G|-------------------------------------------|
D|-------------------------------------------|
A|-8-8888-8888-8888-111111-888-101010--------|
E|-------------------------------------------|
   . .... .... .... . . .  ... . . .
e|----------------------------|
B|----------------------------|
G|----------------------------|
D|----------------------------|
A|-----------------------^----|
E|-77778888555577777711114~~~-|


VERSE
00:39.9
those are 11's and 10's as well
e|-----------------------------------------|x2
B|-----------------------------------------|
G|-9----9----9-----------------------------|
D|-----------------------------------------|
A|--777--777--777-111111-888-101010--------|
E|-----------------------------------------|
    ...  ...  ... . . .  ... . . .
e|-----------------------------------------|x2
B|-----------------------------------------|
G|-10----10----10--------------------------|
D|-----------------------------------------|
A|---888---888---888-111111-888-101010-----|
E|-----------------------------------------|
     ...   ...   ... . . .  ... . . .
e|-----------------------------------------|x2
B|-----------------------------------------|
G|-9----9----9-----------------------------|
D|-----------------------------------------|
A|--777--777--777-111111-888-101010--------|
E|-----------------------------------------|
    ...  ...  ... . . .  ... . . .
e|-----------------------------------------|x1
B|-----------------------------------------|
G|-10----10----10--------------------------|
D|-----------------------------------------|
A|---888---888---888-111111-888-101010-----|
E|-----------------------------------------|
     ...   ...   ... . . .  ... . . .
e|----------------------------|
B|----------------------------|
G|----------------------------|
D|----------------------------|
A|-----------------------^----|
E|-77778888555577777711114~~~-|

00:59.8
e|-----------------------------------------|x3
B|-----------------------------------------|
G|-----------------------------------------|
D|-----------------------------------------|
A|-8888-8888-8888-111111-888-101010--------|
E|-----------------------------------------|
   .... .... .... . . .  ... . . .
e|----------------------------|
B|----------------------------|
G|----------------------------|
D|----------------------------|
A|-----------------------^----|
E|-77778888555577777711114~~~-|

01:09.5
e|-----------------------------------------|x3
B|-----------------------------------------|
G|-----------------------------------------|
D|-----------------------------------------|
A|-8888-8888-8888-111111-888-101010--------|
E|-----------------------------------------|
   .... .... .... . . .  ... . . .
e|----------------------------|
B|----------------------------|
G|----------------------------|
D|----------------------------|
A|-----------------------^----|
E|-77778888555577777711114~~~-|


under first solo
01:19.2
e|------------------------------|
B|------------------------------|
G|------------------------------|
D|-2======5======5======5======-|
A|-0======3======3======3======-|
E|------------------------------|

01:24.3
e|-----------------------------------------|x2
B|-----------------------------------------|
G|-----------------------------------------|
D|-----------------------------------------|
A|-----------------------------------------|
E|-0-0000-0000-0000-444-111-333------------|
   . .... .... .... ... ... ...

for this second part of the solo backing
only let the first 3 power chords ring
01:29.4
e|-----------------------------|
B|-----------------------------|
G|-----------------------------|
D|-2======5======5======5------|
A|-0======3======3======3------|
E|-----------------------------|

01:34.1
e|-----------------------------------------|
B|-----------------------------------------|
G|-----------------------------------------|
D|-----------------------------------------|
A|-----------------------------------------|
E|-0-0000-0000-0000-444-111-333------------|
   . .... .... .... ... ... ...
e|----------------------------|
B|----------------------------|
G|----------------------------|
D|----------------------------|
A|-----------------------^----|
E|-77778888555577777711114~~~-|



VERSE 2
01:39.0
e|-----------------------------------------|x2
B|-----------------------------------------|
G|-9----9----9-----------------------------|
D|-----------------------------------------|
A|--777--777--777-111111-888-101010--------|
E|-----------------------------------------|
    ...  ...  ... . . .  ... . . .

01:44.0
e|-----------------------------------------|x2
B|-----------------------------------------|
G|-10----10----10--------------------------|
D|-----------------------------------------|
A|---888---888---888-111111-888-101010-----|
E|-----------------------------------------|
     ...   ...   ... . . .  ... . . .

01:48.8
e|-----------------------------------------|x2
B|-----------------------------------------|
G|-9----9----9-----------------------------|
D|-----------------------------------------|
A|--777--777--777-111111-888-101010--------|
E|-----------------------------------------|
    ...  ...  ... . . .  ... . . .

01:54.3
e|-----------------------------------------|x1
B|-----------------------------------------|
G|-10----10----10--------------------------|
D|-----------------------------------------|
A|---888---888---888-111111-888-101010-----|
E|-----------------------------------------|
     ...   ...   ... . . .  ... . . .

e|----------------------------|
B|----------------------------|
G|----------------------------|
D|----------------------------|
A|-----------------------^----|
E|-77778888555577777711114~~~-|

01:58.9
e|-----------------------------------------|x3
B|-----------------------------------------|
G|-----------------------------------------|
D|-----------------------------------------|
A|-8888-8888-8888-111111-888-101010--------|
E|-----------------------------------------|
   .... .... .... . . .  ... . . .

e|----------------------------|
B|----------------------------|
G|----------------------------|
D|----------------------------|
A|-----------------------^----|
E|-77778888555577777711114~~~-|

02:08.6
e|-----------------------------------------|x3
B|-----------------------------------------|
G|-----------------------------------------|
D|-----------------------------------------|
A|-8888-8888-8888-111111-888-101010--------|
E|-----------------------------------------|
   .... .... .... . . .  ... . . .
e|-----------------------------|
B|-----------------------------|
G|-----------------------------|
D|-----------------------------|
A|------------------------^----|
E|-77778888555577777711114~~~--|


before solo
02:18.9
e|-------------------------------------|
B|-------------------------------------|
G|-------------------------------------|
D|-------------6-5---5-----------------|
A|-----------------7---7-5-8-----------|
E|-0000-0000-0-------------------------|
   .... .... . . . . . . . .

02:21.8
e|---------------------------------------|x3
B|---------------------------------------|
G|---------------------------------------|
D|---------------6-5---5-----------------|
A|-------------------7---7-5-8-----------|
E|-0-0000-0000-0-------------------------|
   . .... .... . . . . . . . .

02:28.9
e|-----------------------------------|
B|-----------------------------------|
G|-----------------------------------|
D|---6-5---5---------6-5---5---------|
A|-7-----7---7-5-8-7-----7---7-5-8-7-|
E|-----------------------------------|
   . . . . . . . . . . . . . . . . .

main riff solo backing
02:30.7
e|-----------------------------------------|x10
B|-----------------------------------------|
G|-----------------------------------------|
D|-----------------------------------------|
A|-----------------------------------------|
E|-0-0000-0000-0000-444-111-333------------|
   . .... .... .... ... ... ...

02:53.0
e|-----------------------------------------|x3
B|-----------------------------------------|
G|-----------------------------------------|
D|-----------------------------------------|
A|-8888-8888-8888-111111-888-101010--------|
E|-----------------------------------------|
   .... .... .... . . .  ... . . .

e|----------------------------|
B|----------------------------|
G|----------------------------|
D|----------------------------|
A|-----------------------^----|
E|-77778888555577777711114~~~-|

03:02.7
e|-----------------------------------------|x3
B|-----------------------------------------|
G|-----------------------------------------|
D|-----------------------------------------|
A|-8888-8888-8888-111111-888-101010--------|
E|-----------------------------------------|
   .... .... .... . . .  ... . . .

e|----------------------------|
B|----------------------------|
G|----------------------------|
D|----------------------------|
A|-----------------------^----|
E|-77778888555577777711114~~~-|

03:13.0
e|-------------|
B|-------------|
G|-------------|
D|-------------|
A|-----------2-|
E|-0000-0000-0-|
   .... ....

END
Tap to rate this tab
# A B C D E F G H I J K L M N O P Q R S T U V W X Y Z