Song name
# A B C D E F G H I J K L M N O P Q R S T U V W X Y Z

Beherit - The Gate Of Nanna tab

 BEHERIT - The Gate of Nanna
 Drawing Down the Moon

 Q=65

 4/4

 Intro
  W
|----------|
|----------|
|----------|
|-4--------|
|-2--------|
|----------|


 Riff 1
  Q   E.  SS E S E E    Q   E.  SS E S E E
|---------------------|-----------------------|  
|---------------------|-----------------------|
|---------------------|-----------------------|
|-4---4---44-4-4-7-7--|--4---4---44-4-4-3-3---|
|-2---2---22-2-2-5-5--|--2---2---22-2-2-1-1---|
|---------------------|-----------------------|


 Riff 2
  SSSSSSSSSSSS E S
|---------------------|  
|---------------------|
|---------------------|
|-444444444444-7-77---|
|-222222222222-5-55---|
|---------------------|


 Riff 1
 Q   E.  SS E S E E    Q   E.  SS E S E E
|---------------------|-----------------------|  
|---------------------|-----------------------|
|---------------------|-----------------------|
|-4---4---44-4-4-7-7--|--4---4---44-4-4-3-3---|
|-2---2---22-2-2-5-5--|--2---2---22-2-2-1-1---|
|---------------------|-----------------------|


Riff 2
  SSSSSSSSSSSS E S
|---------------------|  
|---------------------|
|---------------------|
|-444444444444-7-77---|
|-222222222222-5-55---|
|---------------------|


 Fill
  W
|----------|
|----------|
|----------|
|-4--------|
|-2--------|
|----------|


 Q=80

 Riff 3
  Q.  E Q   Q   Q.  E Q   Q   Q.  E Q   Q   E Q   E Q   Q
|-----------------------------------------------------------|  
|-----------------------------------------------------------|
|-----------------------------------------------------------|
|-4---4-7---6---4---4-7---6---4---4-7---6---2-2---2-7---6---|
|-2---2-5---4---2---2-5---4---2---2-5---4---0-0---0-5---4---|
|-----------------------------------------------------------|


 Riff 4 |---3---|        |---3---|
  H.    |   E   |  H.    |   E   |
|-----------------------------------|  
|-----------------------------------|
|-----------------------------------|
|-----------------------------------|
|-2------2--3--3---2------2--1--1---|
|-0------0--0--0---0------0--0--0---|                      
                                                           
                                                           
                                                           
 Riff Order:                                              
                                                           
 Intro  x1                                               
 Riff 1 x8                                              
 Riff 2 x4                                               
 Riff 1 x4                                            
 Riff 2 x8                                            
 Fill   x1                                           
 Riff 3 x6                                           
 Riff 4 x10                                           
Tap to rate this tab
# A B C D E F G H I J K L M N O P Q R S T U V W X Y Z