Song name
# A B C D E F G H I J K L M N O P Q R S T U V W X Y Z

Behexen - Distant Call From The Darkness tab

Riff 1
-----------------------------------------0--------|
------0----------0----------0----------0---0------|
----2----------2----------2----------2-------2----|
--2----------2----------3----------3-----------3--|
0----------0----------0----------0----------------|
--------------------------------------------------|

Riff 2
--------0------------------------|
------0---1----------------------|
----2-------2---------0H------0--|
--2-----------------4-------3----|
0-----------------4-------3------|
----------------2-------1--------|

Riff 4
----------------------------|
----------------------------|
--------------------8-7-----|
---------5-5-55-6-6-6-5-----|
5-5-5555-3-3-33-4-4-----8-7-|
3-3-3333----------------6-5-|
    xxxx     xx

Riff 5 (tremelo picking)
G 1010101010101010-9-9-9-9-9-9-9-9-9-9-9-91010-9-9-7-7-7-7-7-7-7-7-|
D -0-0-0-0-0-0-0-0-0-0-0-0-0-0-0-0-7-7-7-7-7-7-7-7-7-7-7-7-7-7-7-7-|

Riff 6
----------------------------------------------------------------------------|
----------------------------------------------------------------------------|
----------------------------------------------------------------------------|
--------------------------------------5------5------5----4------4------4----|
2-2222-2-2222-2-22-2-2222-2-2222-2-22-3-3333-3-3333-3-33-2-2222-2-2222-2-22-|
0-0000-0-0000-0-00-0-0000-0-0000-0-00---0000---0000---00---0000---0000---00-|
  xxxx   xxxx   xx   xxxx   xxxx   xx   xxxx   xxxx   xx   xxxx   xxxx   xx

Riff 6 (continued...)
----------------------------------------------------------------------------|
----------------------------------------------------------------------------|
--------------------------------------5------5------5----4------4------4----|
--------------------------------------5-5555-5-5555-5-55-4-4444-4-4444-4-44-|
2-2222-2-2222-2-22-2-2222-2-2222-2-22-3-3333-3-3333-3-33-2-2222-2-2222-2-22-|
0-0000-0-0000-0-00-0-0000-0-0000-0-00---------------------------------------|

Riff 7 (tremelo picking)
G 1010101010101010-9-9-9-9-9-9-9-914141414141414141414141414141414-|
D -0-0-0-0-0-0-0-0-0-0-0-0-0-0-0-012121212121212121212121212121212-|

Riff 7 (continued...)
G 1010101010101010-9-9-9-9-9-9-9-914141414141414141414141414141414-|
D -8-8-8-8-8-8-8-8-7-7-7-7-7-7-7-7-0-0-0-0-0-0-0-0-0-0-0-0-0-0-0-0-|
Tap to rate this tab
 
# A B C D E F G H I J K L M N O P Q R S T U V W X Y Z