Guitaretab - guitar tabs
Song name
# A B C D E F G H I J K L M N O P Q R S T U V W X Y Z

Behexen - Blessed Be The Darkness tab

BEHEXEN  BLESSED BE THE DARKNESS
(its not the right timing)

(Guitar 1) Speed picking
E ----------------------------------------|
B ----------------------------------------|
G -----------9---10---9---7---5---4-------|
D -------9--------------------------------|
A ---7------------------------------------|
E ----------------------------------------|

E ----------------------------------------|
B ----------------------------------------|
G ----------------------------------------|
D -----------9---10---9---7---5---4-------|
A -------7--------------------------------|
E ---8------------------------------------|

(Guitar 2) comes in second time first riff is played
E ----------------------------------------|
B ----------------------------------------|
G ----------------------------------------|
D ----------------------------------------|
A ---2-----------5-----------3------------|
E ---0-----------3-----------1------------|


(both guitars?)
E ----------------------------------------|
B ----------------------------------------|
G ----------------------------------------|
D ---9---10---12---10----9----7-----------|
A ---7----7----7----7----7----7-----------|
E ----------------------------------------|
[ Tab from: http://www.guitaretab.com/b/behexen/87038.html ]
E ----------------------------------------|
B ----------------------------------------|
G ----------------------------------------|
D ---5--------7--------4--------4---------|
A ---7--------7--------7--------5---------|
E ----------------------------------------|

E -----------------------------------------------------------------------|
B ----------------5----------------3---------------1----------------0----|
G --------4--------------4-----------------4---------------4-------------|
D ---2-------2-------2-------2-------2-------2-------2-------2-----------|
A -----------------------------------------------------------------------|
E -----------------------------------------------------------------------|

E ??????????????????????????????
B ??????????????????????????????
G ??????????????????????????????
D ??????????????????????????????
A ??????????????????????????????
E ?????????????????????????????? sorry... I don't know this riff :(

Speed picking
E ----------------------------------------|
B ----------------------------------------|
G ---4---2---4---2-4-2---0---2----5-------|
D ----------------------------------------|
A ----------------------------------------|
E ----------------------------------------|

Ending
E ----------------------------------------|
B ----------------------------------------|
G ----------------------------------------|
D ---2------------------------------------|
A ---2------------------------------------|
E ---0------------------------------------| fade out

i think this is right. if you know the tabs to the riff i didnt know or if i did 
wrong and you know how it should be, please send it to dominus-sathanas@hotmail.com :)

http://www.behexen.tk
Related for Blessed Be The Darkness tab